Cifra Club

Chem 6a

Switchfoot

Cifra: Principal (violão e guitarra)
Selo Cifra Club: esta cifra foi revisada para atender aos critérios oficiais da nossa Equipe de Qualidade.
tom: G
Intro and verse

e|---------------------------------------------------------------------------|
B|---------------------------------------------------------------------------|
G|-^3-------^3------^2------2-h4-2p0--------^3------^3------^2---------------|
D|---------------------------------------------------------------------------|
A|------2-2-----3-3-----5-5-------------------------2-2-----3-3------5---2/5-|
E|--3-3-------------------------------------------3-3------------------------|

CHORUS

Em            G     Em          D       C
I dont wanna be here, I dont wanna see this now

     D  Em      D G
Its all wrong but its all right.

(REPEAT)

1st Bridge

G|------2/7--7/9--5--0--2--2h3--0--0h2p0--|
D|----------------------------------------|

G|------2/7-7-7-7-7--7/12--12/14--14/15--12--12h14--12--|
D|------------------------------------------------------|

then strum hard and aggresivlly : 

G  Bm C D then on the G string" G|-----12/14--14/15--12--12h14--12

or there is a 2nd guitar doing somthin like this:

G|--5h7-7-7--|
D|--5----5-5-|      reapeat

2nd Verse

G                           C       D                 G
And I dont know what love is and i dont know who i am
                    C     D
And if I ever wanna find out- I'll watch the movie


repeat- then kick it into the original verse tab

end riff 
(is somthin like this)

B|---------10-----10h12-10-----10---------------------------|
G|--9/12-----12---------------12-----12-12--12-12-11-9--12--|

e|----------------------------9----------------------|
B|------10----10h12-10---12--------------------------|
G|--12----12--------------------12--12-12-11-9-11-12-|
Outros vídeos desta música
2.977 exibições
    • ½ Tom
    • A
    • Bb
    • B
    • C
    • Db
    • D
    • Eb
    • E
    • F
    • F#
    • G
    • Ab
  • Adicionar à lista

Afinação da cifra

Afinador online

    0 comentários

    Ver todos os comentários

    Entre para o Cifra Club PRO

    Tenha acesso a benefícios exclusivos no App e no Site

    • Chega de anúncios

    • Mais recursos no app do Afinador

    • Atendimento Prioritário

    • Aumente seu limite de lista

    • Ajude a produzir mais conteúdo

    Cifra Club Pro

    Aproveite o Cifra Club com benefícios exclusivos e sem anúncios
    Cifra Club Pro
    Aproveite o Cifra Club com benefícios exclusivos e sem anúncios
    OK