Cifra Club

Cartwheels

Symposium

Cifra: Principal (violão e guitarra)
Selo Cifra Club: esta cifra foi revisada para atender aos critérios oficiais da nossa Equipe de Qualidade.
tom: D
E|---------------------------------------------------------------------------------|

Intro x2

Gtr 1
E|--------7--5--------5-7------|--------7--5--------5-7------|
B|-5--7-8------8-7--8------8-7-|-5--7-8------8-7--8----------|
G|-----------------------------|-----------------------------|
D|-----------------------------|-----------------------------|
A|-----------------------------|-----------------------------|
E|-----------------------------|-----------------------------|

Gtr 2
E|-----------------------------|-----------------------------|
B|-----------------------------|-----------------------------|
G|---------------7--7-7-4--4-4-|---------------7--7-7-4--4-4-|
D|-2--2-2-5--5-5-7--7-7-4--4-4-|-2--2-2-5--5-5-7--7-7-4--4-4-|
A|-2--2-2-5--5-5-5--5-5-2--2-2-|-2--2-2-5--5-5-5--5-5-2--2-2-|
E|-0--0-0-3--3-3---------------|-0--0-0-3--3-3---------------|
E|---------------------------------------------------------------------------------|

Verse 1 x2
E|-----------------------------|------------------------------|
B|-----------------------------|------------------------------|
G|/9--9-9--------7--7-7-4--4-4-| /9--9-9---------7--7-7-4--4-4-|
D|/9--9-9-5--5-5-7--7-7-4--4-4-| /9--9-9--5--5-5-7--7-7-4--4-4-|
A|/7--7-7-5--5-5-5--5-5-2--2-2-| /7--7-7--5--5-5-5--5-5-2--2-2-|
E|--------3--3-3---------------|---------3--3-3---------------|

Everthing is going smoothly, Everything is really nice,
Everything is really groovy, Everything is just so right.
E|---------------------------------------------------------------------------------|

Riff x2

Gtr 1
E|--------7--5--------5-7------|--------7--5--------5-7------|
B|-5--7-8------8-7--8------8-7-|-5--7-8------8-7--8----------|
G|-----------------------------|-----------------------------|
D|-----------------------------|-----------------------------|
A|-----------------------------|-----------------------------|
E|-----------------------------|-----------------------------|

Gtr 2
E|-----------------------------|-----------------------------|
B|-----------------------------|-----------------------------|
G|---------------7--7-7-4--4-4-|---------------7--7-7-4--4-4-|
D|-2--2-2-5--5-5-7--7-7-4--4-4-|-2--2-2-5--5-5-7--7-7-4--4-4-|
A|-2--2-2-5--5-5-5--5-5-2--2-2-|-2--2-2-5--5-5-5--5-5-2--2-2-|
E|-0--0-0-3--3-3---------------|-0--0-0-3--3-3---------------|
E|---------------------------------------------------------------------------------|

Verse 2 x2
E|-------------------------------|-------------------------------|
B|-------------------------------|-------------------------------|
G|/9--9-9--------7--7-7-4--4-4---| /9--9-9---------7--7-7-4--4-4--|
D|/9--9-9-5--5-5-7--7-7-4--4-4---| /9--9-9--5--5-5-7--7-7-4--4-4--|
A|/7--7-7-5--5-5-5--5-5-2--2-2---| /7--7-7--5--5-5-5--5-5-2--2-2--|
E|--------3--3-3-----------------|---------3--3-3----------------|

Just remembered broken promise, and everything will be alright,
Got a problem being honest, to the ???? in the sky.
E|---------------------------------------------------------------------------------|

Riff x2

Gtr 1
E|--------7--5--------5-7------|--------7--5--------5-7------|
B|-5--7-8------8-7--8------8-7-|-5--7-8------8-7--8----------|
G|-----------------------------|-----------------------------|
D|-----------------------------|-----------------------------|
A|-----------------------------|-----------------------------|
E|-----------------------------|-----------------------------|

Gtr 2
E|-----------------------------|-----------------------------|
B|-----------------------------|-----------------------------|
G|---------------7--7-7-4--4-4-|---------------7--7-7-4--4-4-|
D|-2--2-2-5--5-5-7--7-7-4--4-4-|-2--2-2-5--5-5-7--7-7-4--4-4-|
A|-2--2-2-5--5-5-5--5-5-2--2-2-|-2--2-2-5--5-5-5--5-5-2--2-2-|
E|-0--0-0-3--3-3---------------|-0--0-0-3--3-3---------------|
E|---------------------------------------------------------------------------------|

Chorus 1
E|-------------------------------|-------------------------------|
B|-------------------------------|-------------------------------|
G|-5--5-5------------------------|-5--5-5------------------4-4-4-|
D|-5--5-5-5-5-5-5-2--2-2-5-5-5-5-|-5--5-5-5-5-5-5-2-2-2-2--4-4-4-|
A|-3--3-3-5-5-5-5-2--2-2-5-5-5-5-|-3--3-3-5-5-5-5-2-2-2-2--2-2-2-|
E|--------3-3-3-3-0--0-0-3-3-3-3-|--------3-3-3-3-0-0-0-0--------|

E|-------------------------------|--------------------------------|
B|-------------------------------|--------------------------------|
G|-5--5-5------------------------|-5--5-5---------4-4-4-4-4-4-4-4-|
D|-5--5-5-5-5-5-5-2--2-2-5-5-5-5-|-5--5-5-5-5-5-5-4-4-4-4-4-4-4-4-|
A|-3--3-3-5-5-5-5-2--2-2-5-5-5-5-|-3--3-3-5-5-5-5-2-2-2-2-2-2-2-2-|
E|--------3-3-3-3-0--0-0-3-3-3-3-|--------3-3-3-3-----------------|

Every person, woman, man, is being just as nice as they can.
E|---------------------------------------------------------------------------------|

Solo
Gtr 1
E|--------7--5-----------------|--------5--5---10-8--8--7----|
B|-5--7-8------8-7--8-7-8--7-8-|-5--7-8------8---------------|
G|-----------------------------|-----------------------------|
D|-----------------------------|-----------------------------|
A|-----------------------------|-----------------------------|
E|-----------------------------|-----------------------------|

Gtr 2
E|-----------------------------|-----------------------------|
B|-----------------------------|-----------------------------|
G|---------------7--7-7-4--4-4-|---------------7--7-7-4--4-4-|
D|-2--2-2-5--5-5-7--7-7-4--4-4-|-2--2-2-5--5-5-7--7-7-4--4-4-|
A|-2--2-2-5--5-5-5--5-5-2--2-2-|-2--2-2-5--5-5-5--5-5-2--2-2-|
E|-0--0-0-3--3-3---------------|-0--0-0-3--3-3---------------|

Gtr1
E|--------7--5--------5-7------|--------7--5---7-5-7--10-10--|
B|-5--7-8------8-7--8------8-7-|-5--7-8------8---------------|
G|-----------------------------|-----------------------------|
D|-----------------------------|-----------------------------|
A|-----------------------------|-----------------------------|
E|-----------------------------|-----------------------------|

Gtr 2
E|-----------------------------|-----------------------------|
B|-----------------------------|-----------------------------|
G|---------------7--7-7-4--4-4-|---------------7--7-7-4--4-4-|
D|-2--2-2-5--5-5-7--7-7-4--4-4-|-2--2-2-5--5-5-7--7-7-4--4-4-|
A|-2--2-2-5--5-5-5--5-5-2--2-2-|-2--2-2-5--5-5-5--5-5-2--2-2-|
E|-0--0-0-3--3-3---------------|-0--0-0-3--3-3---------------|

Gtr1
E|-12b----12b----12b----12b----|-12b----12b----12b----12b----|
B|-----------------------------|-----------------------------|
G|-----------------------------|-----------------------------|
D|-----------------------------|-----------------------------|
A|-----------------------------|-----------------------------|
E|-----------------------------|-----------------------------|

Gtr 2
E|-----------------------------|-----------------------------|
B|-----------------------------|-----------------------------|
G|---------------7--7-7-4--4-4-|---------------7--7-7-4--4-4-|
D|-2--2-2-5--5-5-7--7-7-4--4-4-|-2--2-2-5--5-5-7--7-7-4--4-4-|
A|-2--2-2-5--5-5-5--5-5-2--2-2-|-2--2-2-5--5-5-5--5-5-2--2-2-|
E|-0--0-0-3--3-3---------------|-0--0-0-3--3-3---------------|

Gtr1
E|-12b----12b----12b----12b----|-12b----12b----12b-----\12---|
B|-----------------------------|-----------------------------|
G|-----------------------------|-----------------------------|
D|-----------------------------|-----------------------------|
A|-----------------------------|-----------------------------|
E|-----------------------------|-----------------------------|

Gtr 2
E|-----------------------------|-----------------------------|
B|-----------------------------|-----------------------------|
G|---------------7--7-7-4--4-4-|---------------7--7-7-4--4-4-|
D|-2--2-2-5--5-5-7--7-7-4--4-4-|-2--2-2-5--5-5-7--7-7-4--4-4-|
A|-2--2-2-5--5-5-5--5-5-2--2-2-|-2--2-2-5--5-5-5--5-5-2--2-2-|
E|-0--0-0-3--3-3---------------|-0--0-0-3--3-3---------------|

Everything is really groovy, Everything is really nice, 
Everything is going smoothly, Everything is just so right.
E|---------------------------------------------------------------------------------|

Chorus 2
E|-------------------------------|-------------------------------|
B|-------------------------------|-------------------------------|
G|-5--5-5------------------------|-5--5-5------------------4-4-4-|
D|-5--5-5-5-5-5-5-2--2-2-5-5-5-5-|-5--5-5-5-5-5-5-2-2-2-2--4-4-4-|
A|-3--3-3-5-5-5-5-2--2-2-5-5-5-5-|-3--3-3-5-5-5-5-2-2-2-2--2-2-2-|
E|--------3-3-3-3-0--0-0-3-3-3-3-|--------3-3-3-3-0-0-0-0--------|

E|-------------------------------|--------------------------------|
B|-------------------------------|--------------------------------|
G|-5--5-5------------------------|-5--5-5---------4-4-4-4-4-4-4-4-|
D|-5--5-5-5-5-5-5-2--2-2-5-5-5-5-|-5--5-5-5-5-5-5-4-4-4-4-4-4-4-4-|
A|-3--3-3-5-5-5-5-2--2-2-5-5-5-5-|-3--3-3-5-5-5-5-2-2-2-2-2-2-2-2-|
E|--------3-3-3-3-0--0-0-3-3-3-3-|--------3-3-3-3-----------------|

Every woman, every man, is being just as nice as they can.
E|---------------------------------------------------------------------------------|

Bridge
Gtr 1
E|----------------------------------| |
B|----------------------------------| |
G|----------------------------------| |
D|-2--------------------------------| |
A|-2--------------------------------| |
E|-0--------------------------------| |
                                     | x4
Gtr 2                                |
E|----------------------------------| |
B|----------------------------------| |
G|----------------------------------| |
D|-9-9-9--7-7-7--12-12-12--11-11-11-| |
A|-7-7-7--5-5-5--10-10-10--9--9--9--| |
E|----------------------------------| |

Gtr 1
E|-----------------------------------------| |
B|-----------------------------------------| |
G|-9-9-9-9-7-7-7-7-12-12-12-12-11-11-11-11-||
D|-----------------------------------------| |
A|-7-7-7-7-5-5-5-5-10-10-10-10-9--9--9--9--| |
E|-----------------------------------------| |
                                            | x4
Gtr2                                        |
E|-----------------------------------------| |
B|-----------------------------------------| |
G|-----------------------------------------||
D|-9-9-9---7-7-7---12-12-12----11-11-11----||
A|-7-7-7---5-5-5---10-10-10----9--9--9-----||
E|-----------------------------------------||

Gtr 1
E|-----------------------------------------| |
B|-----------------------------------------| |
G|-9-9-9-9-7-7-7-7-12-12-12-12-11-11-11-11-||
D|-----------------------------------------| |
A|-7-7-7-7-5-5-5-5-10-10-10-10-9--9--9--9--| |
E|-----------------------------------------| |
                                            | x4
Gtr 2                                       |
E|-----------------------------------------| |
B|-----------------------------------------| |
G|-----------------7--7--7--7--4--4--4--4--||
D|-2-2-2-2-5-5-5-5-7--7--7--7--4--4--4--4--||
A|-2-2-2-2-5-5-5-5-5--5--5--5--2--2--2--2--||
E|-0-0-0-0-3-3-3-3-------------------------||

Yeah!!!!
E|---------------------------------------------------------------------------------|

Chorus 3
E|-------------------------------|-------------------------------|
B|-------------------------------|-------------------------------|
G|-5--5-5------------------------|-5--5-5------------------4-4-4-|
D|-5--5-5-5-5-5-5-2--2-2-5-5-5-5-|-5--5-5-5-5-5-5-2-2-2-2--4-4-4-|
A|-3--3-3-5-5-5-5-2--2-2-5-5-5-5-|-3--3-3-5-5-5-5-2-2-2-2--2-2-2-|
E|--------3-3-3-3-0--0-0-3-3-3-3-|--------3-3-3-3-0-0-0-0--------|

E|-------------------------------|--------------------------------|
B|-------------------------------|--------------------------------|
G|-5--5-5------------------------|-5--5-5---------4-4-4-4-4-4-4-4-|
D|-5--5-5-5-5-5-5-2--2-2-5-5-5-5-|-5--5-5-5-5-5-5-4-4-4-4-4-4-4-4-|
A|-3--3-3-5-5-5-5-2--2-2-5-5-5-5-|-3--3-3-5-5-5-5-2-2-2-2-2-2-2-2-|
E|--------3-3-3-3-0--0-0-3-3-3-3-|--------3-3-3-3-----------------|

Every woman, every man, is being just as nice as they can.
????????set them free, If you love them set them free
E|---------------------------------------------------------------------------------|

Outro
Repeat lots al lib 
E|---|
B|---|
G|-4-|
D|-4-|
A|-2-|
E|---|
E|---------------------------------------------------------------------------------|______
Outros vídeos desta música
    0 exibições
      • ½ Tom
      • A
      • Bb
      • B
      • C
      • Db
      • D
      • Eb
      • E
      • F
      • F#
      • G
      • Ab
    • Adicionar à lista

    Afinação da cifra

    Afinador online

      0 comentários

      Ver todos os comentários

      Conseguiu tocar?

      0Tocaram0Ainda não

      Grave um vídeo tocando Cartwheels e nos envie!

      Toque também

      1. Imagem do artista The BluetonesSleazy Bed Track The Bluetones
      2. Imagem do artista Silver SunThis N That Silver Sun
      3. Imagem do artista KenickieIn Your Car Kenickie
      4. Imagem do artista TerrorvisionKilling Time Terrorvision

      Entre para o Cifra Club PRO

      Tenha acesso a benefícios exclusivos no App e no Site

      • Chega de anúncios

      • Badges exclusivas

      • Mais recursos no app do Afinador

      • Atendimento Prioritário

      • Aumente seu limite de lista

      • Ajude a produzir mais conteúdo

      Cifra Club Pro

      Aproveite o Cifra Club com benefícios exclusivos e sem anúncios
      Cifra Club Pro
      Aproveite o Cifra Club com benefícios exclusivos e sem anúncios
      Ops (: Contenido disponible sólo en portugués.
      OK