Cifra Club

Farewell To Twilight

Symposium

Cifra: Principal (violão e guitarra)
Selo Cifra Club: esta cifra foi revisada para atender aos critérios oficiais da nossa Equipe de Qualidade.
tom: D
E|------------------------------------------------------------------------------|

Intro/verse 1
Gtr 1 (light dist) x7
E|-----------------|-----------------|
B|-----------------|-----------------|
G|---------5-5-----|-2----3-3-3-0----|
D|-3-------5-5-----|-2----3-3-3-0----|
A|-3-------3-3-----|-0----1-1-1-0----|
E|-1---------------|-----------------|

On 8th changes 
E|-----------------|-----------------|
B|-----------------|-----------------|
G|---------5-5-----|-2----3-3-3-3----|
D|-3-------5-5-----|-2----3-3-3-3----|
A|-3-------3-3-----|-0----1-1-1-1----|
E|-1---------------|-----------------|

Gtr 2
  "How we"                            "You said"
E|-----------------|-----------------|---------------------|-----------------|
B|-----6--5---5--6-|-(6)-------------|-----6--5---5--3-----|-----6--5---5--6-|
G|-3/5------5------|-----------------|-3/5------5------5-3-|-3/5------5------|
D|-----------------|-----------------|---------------------|-----------------|
A|-----------------|-----------------|---------------------|-----------------|
E|-----------------|-----------------|---------------------|-----------------|

"I'm still"
E|---------------------|-----------------|
B|-----6--5---5--3-----|-----6--5---5--6-|
G|-3/5------5------5-3-|-3/5------5------|
D|---------------------|-----------------|
A|---------------------|-----------------|
E|---------------------|-----------------|

Cast your mind back a few years, do you remember how is was?
How we used to be blind and care free.
You said I was silly for holding your hand, 
you made a joke about my stupid hair.
I'm still laughing, I'm still laughing.
E|------------------------------------------------------------------------------|

Pre chorus 1
Gtr 1 (I think this octave riff is right)
E|-----------------|-----------------|-----------------|-----------------|
B|-6---------------|-5---------------|-6---------------|-----------------|
G|-----------------|-----------------|-----------------|-----------------|
D|-3---------------|-2---------------|-3---------------|-----------------|
A|-----------------|-----------------|-----------------|-----------------|
E|-----------------|-----------------|-----------------|-----------------|
                                                                         |
Gtr 2                                                                    |
E|-----------------|-----------------|-----------------|-----------------|
B|-----------------|-----------------|-----------------|-----------------|
G|-5-5-5-5-5-5-5-5-|-3-3-3-3-3-3-3-3-|-2-2-2-2-2-2-2-2-|-2-2-2-2-2-2-2-2-|
D|-5-5-5-5-5-5-5-5-|-3-3-3-3-3-3-3-3-|-2-2-2-2-2-2-2-2-|-2-2-2-2-2-2-2-2-|
A|-3-3-3-3-3-3-3-3-|-1-1-1-1-1-1-1-1-|-0-0-0-0-0-0-0-0-|-0-0-0-0-0-0-0-0-|
E|-----------------|-----------------|-----------------|-----------------|

Gtr 1                                   pick scrape
E|-----------------|-----------------|-----------------|-----------------|
B|-6---------------|-5---------------|-----------------|-----------------|
G|-----------------|-----------------|-----------------|-----------------|
D|-3---------------|-2---------------|-----------------|-----------------|
A|-----------------|-----------------|--x--------------|-----------------|
E|-----------------|-----------------|--x--------------|-----------------|
                                                                         |
Gtr 2                                                                    |
E|-----------------|-----------------|-----------------|-----------------|
B|-----------------|-----------------|-----------------|-----------------|
G|-5-5-5-5-5-5-5-5-|-3-3-3-3-3-3-3-3-|-----------------|-----------------|
D|-5-5-5-5-5-5-5-5-|-3-3-3-3-3-3-3-3-|-5-5-5-5-5-5-5-5-|-5-5-5-5-5-5-5-5-|
A|-3-3-3-3-3-3-3-3-|-1-1-1-1-1-1-1-1-|-5-5-5-5-5-5-5-5-|-5-5-5-5-5-5-5-5-|
E|-----------------|-----------------|-3-3-3-3-3-3-3-3-|-3-3-3-3-3-3-3-3-|

Yesterday was such a grand day,
But I don't think it will ever come back again.
E|------------------------------------------------------------------------------|

Chorus 1 x2
Gtr 1
E|-----------------|-----------------|-----------------|-----------------|
B|-----------------|-----------------|-----------------|-----------------|
G|-------5---------|-----------------|---------------5-|-----------------|
D|-----5---------5-|-------7-------2-|-------3-----5---|-----------------|
A|-3-3---------5---|-----7-------2---|-----3---3-3-----|-----0-2-----0-2-|
E|---------3-3-----|-5-5-----0-0-----|-1-1-------------|-3-3-----3-3-----|
                                                                         |
Gtr 2                                                                    |
E|-----------------|-----------------|-----------------|-----------------|
B|-----------------|-----------------|-----------------|-----------------|
G|-5-5-5-5---------|-----------------|---------5-5-5-5-|-----------------|
D|-5-5-5-5-5-5-5-5-|-7-7-7-7-2-2-2-2-|-3-3-3-3-5-5-5-5-|-5-5-5-5-5-5-5-5-|
A|-3-3-3-3-5-5-5-5-|-7-7-7-7-2-2-2-2-|-3-3-3-3-3-3-3-3-|-5-5-5-5-5-5-5-5-|
E|---------3-3-3-3-|-5-5-5-5-0-0-0-0-|-1-1-1-1---------|-3-3-3-3-3-3-3-3-|

Goodbye to moonlight, Farewell to Twilight, Cos everything is over now.
No lipstick, no make-up, no kissing no break-up, Cos everything is over now.
Its over now.
E|------------------------------------------------------------------------------|

post chorus/ verse 2
Gtr 1 (light dist) x7
E|-----------------|-----------------|
B|-----------------|-----------------|
G|---------5-5-----|-2----3-3-3-0----|
D|-3-------5-5-----|-2----3-3-3-0----|
A|-3-------3-3-----|-0----1-1-1-0----|
E|-1---------------|-----------------|

On 8th changes 
E|-----------------|-----------------|
B|-----------------|-----------------|
G|---------5-5-----|-2----3-3-3-3----|
D|-3-------5-5-----|-2----3-3-3-3----|
A|-3-------3-3-----|-0----1-1-1-1----|
E|-1---------------|-----------------|

Gtr 2
  "Goodness me"                       "I don't care"
E|-----------------|-----------------|---------------------|-----------------|
B|-----6--5---5--6-|-(6)-------------|-----6--5---5--3-----|-----6--5---5--6-|
G|-3/5------5------|-----------------|-3/5------5------5-3-|-3/5------5------|
D|-----------------|-----------------|---------------------|-----------------|
A|-----------------|-----------------|---------------------|-----------------|
E|-----------------|-----------------|---------------------|-----------------|

"How we used to"
E|---------------------|-----------------|
B|-----6--5---5--3-----|-----6--5---5--6-|
G|-3/5------5------5-3-|-3/5------5------|
D|---------------------|-----------------|
A|---------------------|-----------------|
E|---------------------|-----------------|

Goodness me you're so grown up, 
you seem to know whats best for both you and me.
I don't care now, I'll just have a mare
How we used to be blind and care free.
E|------------------------------------------------------------------------------|

Pre chorus 2
Gtr 1 (I think this octave riff is right)
E|-----------------|-----------------|-----------------|-----------------|
B|-6---------------|-5---------------|-6---------------|-----------------|
G|-----------------|-----------------|-----------------|-----------------|
D|-3---------------|-2---------------|-3---------------|-----------------|
A|-----------------|-----------------|-----------------|-----------------|
E|-----------------|-----------------|-----------------|-----------------|
                                                                         |
Gtr 2                                                                    |
E|-----------------|-----------------|-----------------|-----------------|
B|-----------------|-----------------|-----------------|-----------------|
G|-5-5-5-5-5-5-5-5-|-3-3-3-3-3-3-3-3-|-2-2-2-2-2-2-2-2-|-2-2-2-2-2-2-2-2-|
D|-5-5-5-5-5-5-5-5-|-3-3-3-3-3-3-3-3-|-2-2-2-2-2-2-2-2-|-2-2-2-2-2-2-2-2-|
A|-3-3-3-3-3-3-3-3-|-1-1-1-1-1-1-1-1-|-0-0-0-0-0-0-0-0-|-0-0-0-0-0-0-0-0-|
E|-----------------|-----------------|-----------------|-----------------|

Gtr 1                                   pick scrape
E|-----------------|-----------------|-----------------|-----------------|
B|-6---------------|-5---------------|-----------------|-----------------|
G|-----------------|-----------------|-----------------|-----------------|
D|-3---------------|-2---------------|-----------------|-----------------|
A|-----------------|-----------------|--x--------------|-----------------|
E|-----------------|-----------------|--x--------------|-----------------|
                                                                         |
Gtr 2                                                                    |
E|-----------------|-----------------|-----------------|-----------------|
B|-----------------|-----------------|-----------------|-----------------|
G|-5-5-5-5-5-5-5-5-|-3-3-3-3-3-3-3-3-|-----------------|-----------------|
D|-5-5-5-5-5-5-5-5-|-3-3-3-3-3-3-3-3-|-5-5-5-5-5-5-5-5-|-5-5-5-5-5-5-5-5-|
A|-3-3-3-3-3-3-3-3-|-1-1-1-1-1-1-1-1-|-5-5-5-5-5-5-5-5-|-5-5-5-5-5-5-5-5-|
E|-----------------|-----------------|-3-3-3-3-3-3-3-3-|-3-3-3-3-3-3-3-3-|

Yesterday was such a grand day,
But I don't think it will ever come back again.
E|------------------------------------------------------------------------------|

Chorus 2 x2
Gtr 1
E|-----------------|-----------------|-----------------|-----------------|
B|-----------------|-----------------|-----------------|-----------------|
G|-------5---------|-----------------|---------------5-|-----------------|
D|-----5---------5-|-------7-------2-|-------3-----5---|-----------------|
A|-3-3---------5---|-----7-------2---|-----3---3-3-----|-----0-2-----0-2-|
E|---------3-3-----|-5-5-----0-0-----|-1-1-------------|-3-3-----3-3-----|
                                                                         |
Gtr 2                                                                    |
E|-----------------|-----------------|-----------------|-----------------|
B|-----------------|-----------------|-----------------|-----------------|
G|-5-5-5-5---------|-----------------|---------5-5-5-5-|-----------------|
D|-5-5-5-5-5-5-5-5-|-7-7-7-7-2-2-2-2-|-3-3-3-3-5-5-5-5-|-5-5-5-5-5-5-5-5-|
A|-3-3-3-3-5-5-5-5-|-7-7-7-7-2-2-2-2-|-3-3-3-3-3-3-3-3-|-5-5-5-5-5-5-5-5-|
E|---------3-3-3-3-|-5-5-5-5-0-0-0-0-|-1-1-1-1---------|-3-3-3-3-3-3-3-3-|

Goodbye to moonlight, Farewell to Twilight, Cos everything is over now.
No lipstick, no make-up, no kissing no break-up, Cos everything is over now.
Its over now.
E|------------------------------------------------------------------------------|

Solo (not 100% but it works for me)

Gtr 1
E|-13-14-13-11-----------|-----------------------|---------------------|
B|-------------14--14-14-|-----------------------|-14-----14--16-16-16-|
G|-----------------------|-13--13-15-13-15-13-15-|-----15--------------|
D|-----------------------|-----------------------|---------------------|
A|-----------------------|-----------------------|---------------------|
E|-----------------------|-----------------------|---------------------|
                                                                       |
Gtr 2                                                                  |
E|-----------------------|-----------------------|---------------------|
B|-----------------------|-----------------------|---------------------|
G|-/10--------\5---------|-2----------3----------|-/10--------\5-------|
D|-/10--------\5---------|-2----------3----------|-/10--------\5-------|
A|-/8---------\3---------|-0----------1----------|-/8---------\3-------|
E|-----------------------|-----------------------|---------------------|

Gtr 1
E|-13-------14-14-14-15-14-|-15--13-15--17-17-17-|-17--15-13/-17-17-17-|
B|----16-14\---------------|---------------------|---------------------|
G|-------------------------|---------------------|---------------------|
D|-------------------------|---------------------|---------------------|
A|-------------------------|---------------------|---------------------|
E|-------------------------|---------------------|---------------------|
                                                                       |
Gtr 2                                                                  |
E|-------------------------|---------------------|---------------------|
B|-------------------------|---------------------|---------------------|
G|-2---------3-------------|-/10--------\5-------|-2----------3--------|
D|-2---------3-------------|-/10--------\5-------|-2----------3--------|
A|-0---------1-------------|-/8---------\3-------|-0----------1--------|
E|-------------------------|---------------------|---------------------|

Gtr 1
E|-17-18-17-15-13-13-13-13-|-10--8---------------|
B|-------------------------|---------------------|
G|-------------------------|---------------------|
D|-------------------------|---------------------|
A|-------------------------|---------------------|
E|-------------------------|---------------------|
                                                 |
Gtr 2                                            |
E|-------------------------|---------------------|
B|-------------------------|---------------------|
G|/10-10-10-10-\5-5-5-5----|-2-2-2-2-3-3-3-3-----|
D|/10-10-10-10-\5-5-5-5----|-2-2-2-2-3-3-3-3-----|
A|/8--8--8--8--\3-3-3-3----|-0-0-0-0-1-1-1-1-----|
E|-------------------------|---------------------|

Its over now. Its over now. Its over now. 
E|------------------------------------------------------------------------------|

Pre chorus 2
Gtr 1 (I think this octave riff is right)
E|-----------------|-----------------|-----------------|-----------------|
B|-6---------------|-5---------------|-6---------------|-----------------|
G|-----------------|-----------------|-----------------|-----------------|
D|-3---------------|-2---------------|-3---------------|-----------------|
A|-----------------|-----------------|-----------------|-----------------|
E|-----------------|-----------------|-----------------|-----------------|
                                                                         |
Gtr 2                                                                    |
E|-----------------|-----------------|-----------------|-----------------|
B|-----------------|-----------------|-----------------|-----------------|
G|-5-5-5-5-5-5-5-5-|-3-3-3-3-3-3-3-3-|-2-2-2-2-2-2-2-2-|-2-2-2-2-2-2-2-2-|
D|-5-5-5-5-5-5-5-5-|-3-3-3-3-3-3-3-3-|-2-2-2-2-2-2-2-2-|-2-2-2-2-2-2-2-2-|
A|-3-3-3-3-3-3-3-3-|-1-1-1-1-1-1-1-1-|-0-0-0-0-0-0-0-0-|-0-0-0-0-0-0-0-0-|
E|-----------------|-----------------|-----------------|-----------------|

Gtr 1                                   pick scrape
E|-----------------|-----------------|-----------------|-----------------|
B|-6---------------|-5---------------|-----------------|-----------------|
G|-----------------|-----------------|-----------------|-----------------|
D|-3---------------|-2---------------|-----------------|-----------------|
A|-----------------|-----------------|--x--------------|-----------------|
E|-----------------|-----------------|--x--------------|-----------------|
                                                                         |
Gtr 2                                                                    |
E|-----------------|-----------------|-----------------|-----------------|
B|-----------------|-----------------|-----------------|-----------------|
G|-5-5-5-5-5-5-5-5-|-3-3-3-3-3-3-3-3-|-----------------|-----------------|
D|-5-5-5-5-5-5-5-5-|-3-3-3-3-3-3-3-3-|-5-5-5-5-5-5-5-5-|-5-5-5-5-5-5-5-5-|
A|-3-3-3-3-3-3-3-3-|-1-1-1-1-1-1-1-1-|-5-5-5-5-5-5-5-5-|-5-5-5-5-5-5-5-5-|
E|-----------------|-----------------|-3-3-3-3-3-3-3-3-|-3-3-3-3-3-3-3-3-|

Yesterday was such a grand day,
But I don't think it will ever come back again.
E|------------------------------------------------------------------------------|

Outro Chorus 
Gtr 1
E|-----------------|-----------------|-----------------|-----------------|
B|-----------------|-----------------|-----------------|-----------------|
G|-------5---------|-----------------|---------------5-|-----------------|
D|-----5---------5-|-------7-------2-|-------3-----5---|-----------------|
A|-3-3---------5---|-----7-------2---|-----3---3-3-----|-----0-2-----0-2-|
E|---------3-3-----|-5-5-----0-0-----|-1-1-------------|-3-3-----3-3-----|
                                                                         | x2
Gtr 2                                                                    |
E|-----------------|-----------------|-----------------|-----------------|
B|-----------------|-----------------|-----------------|-----------------|
G|-5-5-5-5---------|-----------------|---------5-5-5-5-|-----------------|
D|-5-5-5-5-5-5-5-5-|-7-7-7-7-2-2-2-2-|-3-3-3-3-5-5-5-5-|-5-5-5-5-5-5-5-5-|
A|-3-3-3-3-5-5-5-5-|-7-7-7-7-2-2-2-2-|-3-3-3-3-3-3-3-3-|-5-5-5-5-5-5-5-5-|
E|---------3-3-3-3-|-5-5-5-5-0-0-0-0-|-1-1-1-1---------|-3-3-3-3-3-3-3-3-|

Gtr 1
E|-----------------|-----------------|-----------------|-----------------|
B|-----------------|-----------------|-----------------|-----------------|
G|-5-5-------------|-----------------|---------5-5-----|-----------------|
D|-5-5-----5-5-----|-7-7-----2-2-----|-3-3-----5-5-----|-5---------------|
A|-3-3-----5-5-----|-7-7-----2-2-----|-3-3-----3-3-----|-5---------------|
E|---------3-3-----|-5-5-----0-0-----|-1-1-------------|-3---------------|

E|-----------------|-----------------|-----------------|-----------------|
B|-----------------|-----------------|-----------------|-----------------|
G|-5-5-------------|-----------------|---------5-5-----|-----------------|
D|-5-5-----5-5-----|-7-7-----2-2-----|-3-3-----5-5-----|-5-------/-------|
A|-3-3-----5-5-----|-7-7-----2-2-----|-3-3-----3-3-----|-5-------/-------|
E|---------3-3-----|-5-5-----0-0-----|-1-1-------------|-3-------/-------|

E|-----------------|-----------------|-----------------|
B|-----------------|-----------------|-----------------|
G|-----------------|-----------------|-----------------|
D|-10--------------|-(10)------------|-----------------|
A|-10--------------|-(10)------------|--| Feedback-------|
E|-8---------------|-(8-)------------|-----------------|


Goodbye to moonlight, Farewell to Twilight, Cos everything is over now.
No lipstick, no make-up, no kissing no break-up, Cos everything is over now.
Its over now.
E|------------------------------------------------------------------------------|
Outros vídeos desta música
    1 exibições
      • ½ Tom
      • A
      • Bb
      • B
      • C
      • Db
      • D
      • Eb
      • E
      • F
      • F#
      • G
      • Ab
    • Adicionar à lista

    Afinação da cifra

    Afinador online

      0 comentários

      Ver todos os comentários

      Conseguiu tocar?

      0Tocaram0Ainda não

      Grave um vídeo tocando Farewell To Twilight e nos envie!

      Toque também

      1. Imagem do artista The BluetonesSleazy Bed Track The Bluetones
      2. Imagem do artista KenickieIn Your Car Kenickie
      3. Imagem do artista TerrorvisionPerseverance Terrorvision
      4. Imagem do artista Silver SunThis N That Silver Sun

      Entre para o Cifra Club PRO

      Tenha acesso a benefícios exclusivos no App e no Site

      • Chega de anúncios

      • Badges exclusivas

      • Mais recursos no app do Afinador

      • Atendimento Prioritário

      • Aumente seu limite de lista

      • Ajude a produzir mais conteúdo

      Cifra Club Pro

      Aproveite o Cifra Club com benefícios exclusivos e sem anúncios
      Cifra Club Pro
      Aproveite o Cifra Club com benefícios exclusivos e sem anúncios
      Ops (: Contenido disponible sólo en portugués.
      OK