Cifra Club

Egyszeru Dal

Tankcsapda

Cifra: Principal (violão e guitarra)
Selo Cifra Club: esta cifra foi revisada para atender aos critérios oficiais da nossa Equipe de Qualidade.
tom: Em
  Q   Q   E E Q    E E E Q   E E E    
E|----------------|----------------|
B|----------------|----------------|
G|----------------| 7-7-x-5---5-5-2-|
D|2---x---5-5-x---| 7-7-x-5---5-5-2-|
A|2---x---5-5-x---| 5-5-x-3---3-3-0-|
E|0---x---3-3-x---|----------------|

Intro and bass solo:

  Q   Q   E E Q    E E E Q   E E E  Q   Q   E E Q    E E E E   H       
E|----------------|----------------|----------------|----------------|
B|----------------|----------------|----------------|----------------|
G|----------------| 7-7-x-5---5-5-2-|----------------|7-7-x-5L-(5)----|
D|2---x---5-5-x---| 7-7-x-5---5-5-2-|2---x---5-5-x---|7-7-x-5L-(5)----|
A|2---x---5-5-x---| 5-5-x-3---3-3-0-|2---x---5-5-x---|5-5-x-3L-(5)----|
E|0---x---3-3-x---|----------------| 0---x---3-3-x---|----------------|

[Verse]

  Q   E Q   E E E   E E E Q   E E E  Q   E Q   E E E   E E E Q   E E E   
E|----------------|-----------------|----------------|-----------------|
B|----------------|-----------------|----------------|-----------------|
G|--------------7| L|(7)7-------------|--------------7L|(7)7-------------|
D|2---x-5---5-x-7| L|(7)7-x-5---5-5-5-|2---x-5---5-x-7L|(7)7-x-5---5-5-5-|
A|2---x-5---5-x-5| L|(5)5-x-5---5-5-5-|2---x-5---5-x-5L|(5)5-x-5---5-5-5-|
E|0---x-3---3-x---|-----x-3---3-3-3-| 0---x-3---3-x---|-----x-3---3-3-3-|

  Q   E Q   E E E   E E E Q   E E E  Q   E Q   E E E   E E E Q   E E E   
E|----------------|-----------------|----------------|-----------------|
B|----------------|-----------------|----------------|-----------------|
G|--------------7| L|(7)7-------------|--------------7L|(7)7-------------|
D|2---x-5---5-x-7| L|(7)7-x-5---5-5-5-|2---x-5---5-x-7L|(7)7-x-5---5-5-5-|
A|2---x-5---5-x-5| L|(5)5-x-5---5-5-5-|2---x-5---5-x-5L|(5)5-x-5---5-5-5-|
E|0---x-3---3-x---|-----x-3---3-3-3-| 0---x-3---3-x---|-----x-3---3-3-3-|

  Q   E Q   E E E   E E E Q   E E E  Q   E Q   E E E   E E E Q   E E E   
E|----------------|-----------------|----------------|-----------------|
B|----------------|-----------------|----------------|-----------------|
G|--------------7| L|(7)7-------------|--------------7L|(7)7-------------|
D|2---x-5---5-x-7| L|(7)7-x-5---5-5-5-|2---x-5---5-x-7L|(7)7-x-5---5-5-5-|
A|2---x-5---5-x-5| L|(5)5-x-5---5-5-5-|2---x-5---5-x-5L|(5)5-x-5---5-5-5-|
E|0---x-3---3-x---|-----x-3---3-3-3-| 0---x-3---3-x---|-----x-3---3-3-3-|

  Q   E Q   E E E   E E E Q   E E E  Q   E Q   E E E   E E E Q   E E E   
E|----------------|-----------------|----------------|-----------------|
B|----------------|-----------------|----------------|-----------------|
G|--------------7| L|(7)7-------------|--------------7L|(7)7-------------|
D|2---x-5---5-x-7| L|(7)7-x-5---5-5-5-|2---x-5---5-x-7L|(7)7-x-5---5-5-5-|
A|2---x-5---5-x-5| L|(5)5-x-5---5-5-5-|2---x-5---5-x-5L|(5)5-x-5---5-5-5-|
E|0---x-3---3-x---|-----x-3---3-3-3-| 0---x-3---3-x---|-----x-3---3-3-3-|

  Q   E Q   E E E   E E E Q   E E E    
E|----------------|-----------------|
B|----------------|-----------------|
G|--------------7| L|(7)7-------------|
D|2---x-5---5-x-7| L|(7)7-x-5---5-5-5-|
A|2---x-5---5-x-5| L|(5)5-x-5---5-5-5-|
E|0---x-3---3-x---|-----x-3---3-3-3-|

[Chorus]

  Q   E Q   E E E  Q   E Q   E E    Q   E Q   E E E   E E E Q   E E E  
E|----------------|----------------|----------------|-----------------|
B|----------------|----------------|----------------|-----------------|
G|5---5-5---5-5-5-| 7---7-7---7-7-7-|--------------7L|(7)7-------------|
D|5---5-5---5-5-5-| 7---7-7---7-7-7-|2---x-5---5-x-7L|(7)7-x-5---5-5-5-|
A|3---3-3---3-3-3-| 5---5-5---5-5-5-|2---x-5---5-x-5L|(5)5-x-5---5-5-5-|
E|----------------|----------------| 0---x-3---3-x---|-----x-3---3-3-3-|

  Q   E Q   E E E  Q   E Q   E E    W                W                W                E E E E E E E E
E|----------------|----------------|----------------|----------------|----------------|----------------|
B|----------------|----------------|----------------|----------------|----------------|----------------|
G|5---5-5---5-5-5-| 7---7-7---7-7-7-|9---------------|7---------------|5---------------|5-5-5-5-5-5-5-5-|
D|5---5-5---5-5-5-| 7---7-7---7-7-7-|9---------------|7---------------|5---------------|5-5-5-5-5-5-5-5-|
A|3---3-3---3-3-3-| 5---5-5---5-5-5-|7---------------|5---------------|3---------------|3-3-3-3-3-3-3-3-|
E|----------------|----------------|----------------|----------------|----------------|----------------|

[Verse]

  Q   E Q   E E E   E E E Q   E E E  Q   E Q   E E E   E E E Q   E E E   
E|----------------|-----------------|----------------|-----------------|
B|----------------|-----------------|----------------|-----------------|
G|--------------7| L|(7)7-------------|--------------7L|(7)7-------------|
D|2---x-5---5-x-7| L|(7)7-x-5---5-5-5-|2---x-5---5-x-7L|(7)7-x-5---5-5-5-|
A|2---x-5---5-x-5| L|(5)5-x-5---5-5-5-|2---x-5---5-x-5L|(5)5-x-5---5-5-5-|
E|0---x-3---3-x---|-----x-3---3-3-3-| 0---x-3---3-x---|-----x-3---3-3-3-|

  Q   E Q   E E E   E E E Q   E E E  Q   E Q   E E E   E E E Q   E E E   
E|----------------|-----------------|----------------|-----------------|
B|----------------|-----------------|----------------|-----------------|
G|--------------7| L|(7)7-------------|--------------7L|(7)7-------------|
D|2---x-5---5-x-7| L|(7)7-x-5---5-5-5-|2---x-5---5-x-7L|(7)7-x-5---5-5-5-|
A|2---x-5---5-x-5| L|(5)5-x-5---5-5-5-|2---x-5---5-x-5L|(5)5-x-5---5-5-5-|
E|0---x-3---3-x---|-----x-3---3-3-3-| 0---x-3---3-x---|-----x-3---3-3-3-|

  Q   E Q   E E E   E E E Q   E E E  Q   E Q   E E E   E E E Q   E E E   
E|----------------|-----------------|----------------|-----------------|
B|----------------|-----------------|----------------|-----------------|
G|--------------7| L|(7)7-------------|--------------7L|(7)7-------------|
D|2---x-5---5-x-7| L|(7)7-x-5---5-5-5-|2---x-5---5-x-7L|(7)7-x-5---5-5-5-|
A|2---x-5---5-x-5| L|(5)5-x-5---5-5-5-|2---x-5---5-x-5L|(5)5-x-5---5-5-5-|
E|0---x-3---3-x---|-----x-3---3-3-3-| 0---x-3---3-x---|-----x-3---3-3-3-|

  Q   E Q   E E E   E E E Q   E E E  Q   E Q   E E E   E E E Q   E E E   
E|----------------|-----------------|----------------|-----------------|
B|----------------|-----------------|----------------|-----------------|
G|--------------7| L|(7)7-------------|--------------7L|(7)7-------------|
D|2---x-5---5-x-7| L|(7)7-x-5---5-5-5-|2---x-5---5-x-7L|(7)7-x-5---5-5-5-|
A|2---x-5---5-x-5| L|(5)5-x-5---5-5-5-|2---x-5---5-x-5L|(5)5-x-5---5-5-5-|
E|0---x-3---3-x---|-----x-3---3-3-3-| 0---x-3---3-x---|-----x-3---3-3-3-|

[Chorus]

  Q   E Q   E E E  Q   E Q   E E    Q   E Q   E E E   E E E Q   E E E  
E|----------------|----------------|----------------|-----------------|
B|----------------|----------------|----------------|-----------------|
G|5---5-5---5-5-5-| 7---7-7---7-7-7-|--------------7L|(7)7-------------|
D|5---5-5---5-5-5-| 7---7-7---7-7-7-|2---x-5---5-x-7L|(7)7-x-5---5-5-5-|
A|3---3-3---3-3-3-| 5---5-5---5-5-5-|2---x-5---5-x-5L|(5)5-x-5---5-5-5-|
E|----------------|----------------| 0---x-3---3-x---|-----x-3---3-3-3-|

  Q   E Q   E E E  Q   E Q   E E    W                W                W                E E E E E E E E
E|----------------|----------------|----------------|----------------|----------------|----------------|
B|----------------|----------------|----------------|----------------|----------------|----------------|
G|5---5-5---5-5-5-| 7---7-7---7-7-7-|9---------------|7---------------|5---------------|5-5-5-5-5-5-5-5-|
D|5---5-5---5-5-5-| 7---7-7---7-7-7-|9---------------|7---------------|5---------------|5-5-5-5-5-5-5-5-|
A|3---3-3---3-3-3-| 5---5-5---5-5-5-|7---------------|5---------------|3---------------|3-3-3-3-3-3-3-3-|
E|----------------|----------------|----------------|----------------|----------------|----------------|

Versen (with the bass solo):

  Q   E Q   E E E   E E E Q   E E E  Q   E Q   E E E   E E E Q   E E E   
E|----------------|-----------------|----------------|-----------------|
B|----------------|-----------------|----------------|-----------------|
G|--------------7| L|(7)7-------------|--------------7L|(7)7-------------|
D|2---x-5---5-x-7| L|(7)7-x-5---5-5-5-|2---x-5---5-x-7L|(7)7-x-5---5-5-5-|
A|2---x-5---5-x-5| L|(5)5-x-5---5-5-5-|2---x-5---5-x-5L|(5)5-x-5---5-5-5-|
E|0---x-3---3-x---|-----x-3---3-3-3-| 0---x-3---3-x---|-----x-3---3-3-3-|

  Q   E Q   E E E   E E E Q   E E E  Q   E Q   E E E   E E E Q   E E E   
E|----------------|-----------------|----------------|-----------------|
B|----------------|-----------------|----------------|-----------------|
G|--------------7| L|(7)7-------------|--------------7L|(7)7-------------|
D|2---x-5---5-x-7| L|(7)7-x-5---5-5-5-|2---x-5---5-x-7L|(7)7-x-5---5-5-5-|
A|2---x-5---5-x-5| L|(5)5-x-5---5-5-5-|2---x-5---5-x-5L|(5)5-x-5---5-5-5-|
E|0---x-3---3-x---|-----x-3---3-3-3-| 0---x-3---3-x---|-----x-3---3-3-3-|

  Q   E Q   E E E   E E E Q   E E E  Q   E Q   E E E   E E E Q   E E E   
E|----------------|-----------------|----------------|-----------------|
B|----------------|-----------------|----------------|-----------------|
G|--------------7| L|(7)7-------------|--------------7L|(7)7-------------|
D|2---x-5---5-x-7| L|(7)7-x-5---5-5-5-|2---x-5---5-x-7L|(7)7-x-5---5-5-5-|
A|2---x-5---5-x-5| L|(5)5-x-5---5-5-5-|2---x-5---5-x-5L|(5)5-x-5---5-5-5-|
E|0---x-3---3-x---|-----x-3---3-3-3-| 0---x-3---3-x---|-----x-3---3-3-3-|

[Chorus]

  Q   E Q   E E E  Q   E Q   E E    Q   E Q   E E E   E E E Q   E E E  
E|----------------|----------------|----------------|-----------------|
B|----------------|----------------|----------------|-----------------|
G|5---5-5---5-5-5-| 7---7-7---7-7-7-|--------------7L|(7)7-------------|
D|5---5-5---5-5-5-| 7---7-7---7-7-7-|2---x-5---5-x-7L|(7)7-x-5---5-5-5-|
A|3---3-3---3-3-3-| 5---5-5---5-5-5-|2---x-5---5-x-5L|(5)5-x-5---5-5-5-|
E|----------------|----------------| 0---x-3---3-x---|-----x-3---3-3-3-|

  Q   E Q   E E E  Q   E Q   E E    W                W                W                E E E E E E E E
E|----------------|----------------|----------------|----------------|----------------|----------------|
B|----------------|----------------|----------------|----------------|----------------|----------------|
G|5---5-5---5-5-5-| 7---7-7---7-7-7-|9---------------|7---------------|5---------------|5-5-5-5-5-5-5-5-|
D|5---5-5---5-5-5-| 7---7-7---7-7-7-|9---------------|7---------------|5---------------|5-5-5-5-5-5-5-5-|
A|3---3-3---3-3-3-| 5---5-5---5-5-5-|7---------------|5---------------|3---------------|3-3-3-3-3-3-3-3-|
E|----------------|----------------|----------------|----------------|----------------|----------------|

[Outro]
(These are all eight notes, but the tempo is gradually slowing down in the second measure and the last 
 chord is rolled down.)

  E  E  E  E  E   E    E     E      Er
E|----------------------------------0-|
B|----------------------------------0-|
G|5--5--5--5--5---4----2------------0-|
D|5--5--5--5--5---4----2-----2--------|
A|3--3--3--3--3---2----0-----2--------|
E|---------------------------0--------|

Legend:

************************************

| x    Dead note (In this case its a string hit)
| nL   Start of Legato
|(n)   End of Legato note
| h    Hammer-on
| W    Whole Note
| H    Half Note
| Q    Quarter Note
| E    Eight Note
| R    Rest (Only Eights)
| Er   Rolled Down Eight
Outros vídeos desta música
    4 exibições
      • ½ Tom
      • Am
      • Bbm
      • Bm
      • Cm
      • C#m
      • Dm
      • Ebm
      • Em
      • Fm
      • F#m
      • Gm
      • G#m
    • Adicionar à lista

    Afinação da cifra

    Afinador online

      0 comentários

      Ver todos os comentários

      Entre para o Cifra Club PRO

      Tenha acesso a benefícios exclusivos no App e no Site

      • Chega de anúncios

      • Badges exclusivas

      • Mais recursos no app do Afinador

      • Atendimento Prioritário

      • Aumente seu limite de lista

      • Ajude a produzir mais conteúdo

      Cifra Club Pro

      Aproveite o Cifra Club com benefícios exclusivos e sem anúncios
      Cifra Club Pro
      Aproveite o Cifra Club com benefícios exclusivos e sem anúncios
      OK