Cifra Club

Canto Lunar

Tarancón

Cifra: Principal (violão e guitarra)
Tom: D
(intro)  D Bm G F#7 Bm

 D               Bm            G          F#7  Bm
Minha lua navega serena Vai de ipanema ao céu do irã.
D                    Bm                 G      F#7      Bm
Para ela a moda não é tudo a guerra Não duvida o dia de amanhã.
   G                  A
Minha lua corre apaixonada E a passarada  segue o seu corcel.
D                Bm               G        F#7     Bm
Oh lua, oh lua rainha Oh a lua é minha, é de  quem quiser
 Em                   A                                    D
Oh a lua, a lua é das princesas E com mais certeza será dos garis,

                         Bm                 G
Dos cantores, dos trabalhadores Será dos atores  quando a noite cair.
   A                                          G
E será também dos prisioneiros Será dos canteiros e do chafariz,
   D            Bm           G         F#7       Bm
Oh lua, a lua da cidade, Da humanidade e de quem   quiser
   G                  A
Minha lua corre apaixonada E a passarada  segue o seu corcel.
D                Bm               G        F#7     Bm
Oh lua, oh lua rainha Oh a lua é minha, é de  quem quiser
 Em                    A                                    D
Oh a lua, a lua é das princesas E com mais certeza será dos garis,
                         Bm               G
Dos cantores, dos trabalhadores Será dos atores  quando a noite cair.

   A                                          G
E será também dos prisioneiros Será dos canteiros e do chafariz,
   D            Bm           G         F#7       Bm
Oh lua, a lua da cidade, Da humanidade e de quem   quiser

Dedilhado - 

    C#4/D
E|------------------------------------------|
B|------------------------------------------|
G|---------2---------2---------2---------2--|
D|-------4---------4---------4---------4----|
A|-5---------5---------5---------5----------|
E|------------------------------------------|

    F#4/B
E|------------------------------------------|
B|------------------------------------------|
G|---------4---------4---------4---------4--|
D|-------4---------4---------4---------4----|
A|-2---------2---------2---------2----------|
E|------------------------------------------|
exibições 5.628
Acordes para:
    Composição: Denise Emmer Colaboração e revisão:
    • Emanuel Umbelino
    • António Crísomár

    0 comentários

    mostrar mais comentários

    Conseguiu tocar?

    1 tocaram 1 ainda não

    Grave um vídeo tocando Canto Lunar e mande pra gente!

    00:00 / 00:00
    outros vídeos desta música
    repetir qualidade Automático
    Outros vídeos desta música
    00:00 / 00:00
    Automático
    OK