Cifra Club

Aprenda

Shake It Off

Taylor Swift

Cifra: Principal (violão e guitarra)
Quer fazer aulas de música com a gente? Responda essas perguntas
e nos ajude nesse projeto! →
tom: Am
[Intro]

    p   c   p     e  c  p p    e    c  p  e  c 
E|------------------------------------------------------|
B|------x---------x--x---------x----x-----x--x----------|
G|------x---------x--x---------x----x-----x--x----------|
D|--x---x---x-----x--x--x-x----x----x--x--x--x----------|
A|--x-------x-----------x-x------------x----------------|
E|--x-------x-----------x-x------------x----------------|

[Primeira Parte]

   A5
E|------------------------------------------------------|
B|------------------------------------------------------|
G|-2-2-2--2--2-2-2--2---2-2-2---------------------------|
D|-2-2-2--2--2-2-2--2---2-2-2---------------------------|
A|-0-0-0--0--0-0-0--0---0-0-0---------------------------|
E|------------------------------------------------------|

   C5
E|------------------------------------------------------|
B|------------------------------------------------------|
G|-5-5-5-5--5--5-5-5--5---5-5-5-------------------------|
D|-5-5-5-5--5--5-5-5--5---5-5-5-------------------------|
A|-3-3-3-3--3--3-3-3--3---3-3-3-------------------------|
E|------------------------------------------------------|

      G5
E|------------------------------------------------------|
B|------------------------------------------------------|
G|----0-0-0------------0-0-0----------------------------|
D|----0-0-0------------0-0-0----------------------------|
A|------------------------------------------------------|
E|-1--3-3-3---------1--3-3-3----------------------------|

                A5
I stay out too late
                    C5
Got nothing in my brain
                    G5
That's what people say

That's what people say
                  A5
I go on too many dates
                        C5
But I can't make them stay
                             G5
At least that's what people say

That's what people say

             Am
But I keep cruising
                        C
Can't stop, won't stop moving
                      G
It's like I got this music

In my mind, saying 

It's gonna be alright

[Refrão]

            Am
Cause the players gonna play

Play, play, play, play
         C9
And the haters gonna hate

Hate, hate, hate, hate
     G
Baby I'm just gonna shake

Shake, shake, shake, shake

Shake it off, shake it off
           Am
The heartbreakers gonna break

Break, break, break, break
         C9
And the fakers gonna fake

Fake, fake, fake, fake
     G
Baby I'm just gonna shake

Shake, shake, shake, shake

Shake it off, shake it off

[Primeira Parte]

                A5
I never miss a beat
                     C5
I'm lightning on my feet
                            G5
And that's what they don't see

That's what they don't see
                  A5
I'm dancing on my own
                          C5
I make the moves up as I go
                             G5
And that's what they don't know

That's what they don't know

             Am
But I keep cruising
                         C
Can't stop, won't stop grooving
                      G
It's like I got this music

In my mind, saying it's gonna be alright

[Refrão]

            Am
Cause the players gonna play

Play, play, play, play
         C9
And the haters gonna hate

Hate, hate, hate, hate
     G
Baby I'm just gonna shake

Shake, shake, shake, shake

Shake it off, shake it off
           Am
The heartbreakers gonna break

Break, break, break, break
         C9
And the fakers gonna fake

Fake, fake, fake, fake
     G
Baby I'm just gonna shake

Shake, shake, shake, shake

Shake it off, shake it off
  Am
Shake it off, shake it off
          C9
I, I, I shake it off, shake it off
          G
I, I, I shake it off, shake it off

I, I, I shake it off, shake it off

[Segunda Parte]

    p   c   p     e  c  p p    e    c  p  e  c 
E|------------------------------------------------------|
B|------x---------x--x---------x----x-----x--x----------|
G|------x---------x--x---------x----x-----x--x----------|
D|--x---x---x-----x--x--x-x----x----x--x--x--x----------|
A|--x-------x-----------x-x------------x----------------|
E|--x-------x-----------x-x------------x----------------|

Hey, hey, hey
                   
Just think while you been getting 

Down and out about the liars
                       
And the dirty dirty cheats of the world

You could have been getting down

To this sick beat
 
My ex man brought his new girlfriend
            
She's like oh my God

But I'm just gonna shake it
         
To the fella over there with

The hella good hair

Won't you come on over baby

We can shake, shake, shake

Yeah

[Refrão]

            Am
Cause the players gonna play

Play, play, play, play
         C9
And the haters gonna hate

Hate, hate, hate, hate
     G
Baby I'm just gonna shake

Shake, shake, shake, shake

Shake it off, shake it off
           Am
The heartbreakers gonna break

Break, break, break, break
         C9
And the fakers gonna fake

Fake, fake, fake, fake
     G
Baby I'm just gonna shake

Shake, shake, shake, shake

Shake it off, shake it off
  Am
Shake it off, shake it off
           C9
I, I, I shake it off, shake it off
           G
I, I, I shake it off, shake it off

I, I, I shake it off, shake it off
  Am
Shake it off, shake it off
           C9
I, I, I shake it off, shake it off
           G
I, I, I shake it off, shake it off

I, I, I shake it off, shake it off
Composição de Max Martin / Shellback / Taylor Swift
Colaboração e revisão:
  • Gustavo Cunha
  • arthur gonçalves
134.314 exibições
  • Simplificar cifra
    • ½ Tom
    • Am
    • Bbm
    • Bm
    • Cm
    • C#m
    • Dm
    • Ebm
    • Em
    • Fm
    • F#m
    • Gm
    • G#m
  • Adicionar à lista

    0 comentários

    Ver todos os comentários

    Conseguiu tocar?

    44 Tocaram 4 Ainda não

    Grave um vídeo tocando Shake It Off e nos envie!

    00:00 / 00:00
    Outros vídeos desta música
    Repetir Qualidade Automático
    Outros vídeos desta música
    00:00 / 00:00
    Automático
    Capítulos
    • Tocando a música
    • Dicas Iniciais / Equipamentos
    • Acordes da Introdução e Primeira Parte
    • Tocando Introdução e Primeira Parte
    • Introdução
    • Primeira Parte - Parte 1 de 3
    • Primeira Parte - Parte 2 de 3
    • Primeira Parte - Parte 3 de 3
    • Acordes do Refrão
    • Tocando o Refrão
    • Ritmo do Refrão
    • Encerramento
    • Ficha Técnica

    Cifra Club Pro

    Aproveite o Cifra Club com benefícios exclusivos e sem anúncios
    Cifra Club Pro
    Aproveite o Cifra Club com benefícios exclusivos e sem anúncios
    OK