Cifra Club

Idol

Tech N9ne

Cifra: Principal (violão e guitarra)
Selo Cifra Club: esta cifra foi revisada para atender aos critérios oficiais da nossa Equipe de Qualidade.
tom: Am
E|---------------------------------------------------------------------------|
B|---------------------------------------------------------------------------|
G|---------------------------------------------------------------------------|
D|----------0-0-0-0-0-0-------------0-0-0-0-0-0------------------------------|
A|----------0-0-0-0-0-0--x5---------0-0-0-0-0-0--x3--------------------------|
E|----------0-0-0-0-0-0-------------0-0-0-0-0-0------------------------------|


[Chorus]

E|---------------------------------------------------------------------------|
B|---------------------------------------------------------------------------|
G|---------------------------------------------------------------------------|
D|---------0-0-0---1-1---0-0-0---1-1---0-0-0---1-1---5-----------------------|
A|---------0-0-0---1-1---0-0-0---1-1---0-0-0---1-1---5-----x2----------------|
E|---------0-0-0---1-1---0-0-0---1-1---0-0-0---1-1---5-----------------------|

E|---------------------------------------------------------------------------|
B|---------------------------------------------------------------------------|
G|---------------------------------------------------------------------------|
D|---------0~~--1-0---0~~--1-0---0~~--1-0--5---------------x2----------------|
A|---------0~~--1-0---0~~--1-0---0~~--1-0--5---------------------------------|
E|---------0~~--1-0---0~~--1-0---0~~--1-0--5---------------------------------|


[Verse 2] -J3T pre-chorus
                PM.
E|---------------------------------------------------------------------------|
B|---------------------------------------------------------------------------|
G|---------------------------------------------------------------------------|
D|----------0-0-0-0-0-0-------------0-0-0-0-0-0------------------------------|
A|----------0-0-0-0-0-0--x5---------0-0-0-0-0-0--x3--------------------------|
E|----------0-0-0-0-0-0-------------0-0-0-0-0-0------------------------------|



[Chorus]

E|---------------------------------------------------------------------------|
B|---------------------------------------------------------------------------|
G|---------------------------------------------------------------------------|
D|---------0-0-0---1-1---0-0-0---1-1---0-0-0---1-1---5-----------------------|
A|---------0-0-0---1-1---0-0-0---1-1---0-0-0---1-1---5-----x2----------------|
E|---------0-0-0---1-1---0-0-0---1-1---0-0-0---1-1---5-----------------------|

E|---------------------------------------------------------------------------|
B|---------------------------------------------------------------------------|
G|---------------------------------------------------------------------------|
D|---------0~~--1-0---0~~--1-0---0~~--1-0--5---------------x2----------------|
A|---------0~~--1-0---0~~--1-0---0~~--1-0--5---------------------------------|
E|---------0~~--1-0---0~~--1-0---0~~--1-0--5---------------------------------|


[Bridge]

E|---------------------------------------------------------------------------|
B|---------------------------------------------------------------------------|
G|---------------------------------------------------------------------------|
D|---------------------------------------------------------------------------|
A|---------------------------------------------------------------------------|
E|----------0-0-0--1-1--0-0-0--1-1--0-0-0--1-1--0-0-0-b5~~~-x4---------------|


[Chorus]


E|---------------------------------------------------------------------------|
B|---------------------------------------------------------------------------|
G|---------------------------------------------------------------------------|
D|---------0-0-0---1-1---0-0-0---1-1---0-0-0---1-1---5-----------------------|
A|---------0-0-0---1-1---0-0-0---1-1---0-0-0---1-1---5-----x2----------------|
E|---------0-0-0---1-1---0-0-0---1-1---0-0-0---1-1---5-----------------------|

E|---------------------------------------------------------------------------|
B|---------------------------------------------------------------------------|
G|---------------------------------------------------------------------------|
D|---------0~~--1-0---0~~--1-0---0~~--1-0--5---------------x2----------------|
A|---------0~~--1-0---0~~--1-0---0~~--1-0--5---------------------------------|
E|---------0~~--1-0---0~~--1-0---0~~--1-0--5---------------------------------|


[Outro]


E|---------------------------------------------------------------------------|
B|---------------------------------------------------------------------------|
G|---------------------------------------------------------------------------|
D|---------0-0-0---1-1---0-0-0---1-1---0-0-0---1-1---5-----------------------|
A|---------0-0-0---1-1---0-0-0---1-1---0-0-0---1-1---5-----x2----------------|
E|---------0-0-0---1-1---0-0-0---1-1---0-0-0---1-1---5-----------------------|

E|---------------------------------------------------------------------------|
B|---------------------------------------------------------------------------|
G|---------------------------------------------------------------------------|
D|---------0~~--1-0---0~~--1-0---0~~--1-0--5---------------x2----------------|
A|---------0~~--1-0---0~~--1-0---0~~--1-0--5---------------------------------|
E|---------0~~--1-0---0~~--1-0---0~~--1-0--5---------------------------------|

************************************

| ~   Vibrato
| PM  Palm mute
| b bend
00:00 / 00:00
Outros vídeos desta música
Repetir
Outros vídeos desta música
    • ½ Tom
    • Am
    • Bbm
    • Bm
    • Cm
    • C#m
    • Dm
    • Ebm
    • Em
    • Fm
    • F#m
    • Gm
    • G#m
  • Adicionar à lista

Afinação da cifra

Afinador online

    0 comentários

    Ver todos os comentários

    Entre para o Cifra Club PRO

    Tenha acesso a benefícios exclusivos no App e no Site

    • Chega de anúncios

    • Mais recursos no app do Afinador

    • Atendimento Prioritário

    • Aumente seu limite de lista

    • Ajude a produzir mais conteúdo

    00:00 / 00:00

    Cifra Club Pro

    Aproveite o Cifra Club com benefícios exclusivos e sem anúncios
    Cifra Club Pro
    Aproveite o Cifra Club com benefícios exclusivos e sem anúncios
    OK