Cifra Club

Riot Maker

Tech N9ne

Cifra: Principal (violão e guitarra)
Selo Cifra Club: esta cifra foi revisada para atender aos critérios oficiais da nossa Equipe de Qualidade.
tom: D
E|E|-------------------------------------------------------------------------------||
                          Riot Maker/Enjoy - Tech N9ne
E|E|-------------------------------------------------------------------------------||
Tabbed by: BanjoHero21 (Jacob Kesel)
PLEASE RATE!

Tuning: Standard (The FIRST Standard tuned version and full song)

(Intro)
"This one right here's for the Riotmaker's..."

E|---------------------------------------------------------------------------|
B|---------------------------------------------------------------------------|
G|---------------------------------------------------------------------------|
D|-12-12-12--12-12---12-12-12-12--12-12---12-12-12-12--12-12---12-12-12---15-|
A|-----------------------------------------------------------------------x15-|
E|---------------------------------------------------------------------------|

(Chorus )

E|----------------------------| \    /
B|----------------------------| \  /
G|----------------------------| \/
D|0-2-3-0--3---5-7-8-5--8-7-3-| /\   2
A|----------------------------| /  \
E|----------------------------| /    \

(Main Riff)
"This is the moment for writers and thugs..."

E|---------------------------------------------------------|
B|---------------------------------------------------------|
G|---------------------------------------------------------|
D|0-0-0-2-3-3-0-0-0-0-3----5-5-5-7-8-8-5-5-5-5-8-8-7-7-3-3-|
A|---------------------------------------------------------|
E|---------------------------------------------------------|

After playing that a while, comes a sort of odd riff there are 2 versions.
(Riff 2 =Guitar 1=)
"I Don't know why they keep pumpin' its something..."

E|-------------------------------------------------------|
B|-------------------------------------------------------|
G|-------------------------------------------------------|
D|-----------12-----12-----12----------------------------|
A|(12-12-12)---12-12--12-12---12-12-12-12-10-12-13-12-10-|
E|-------------------------------------------------------|

E|-------------------------------------------| \    /
B|-------------------------------------------| \  /
G|-------------------------------------------| \/
D|-------------------------------------------| /\   2
A|-13-10-10-13-10-10-12-13-12-10-12-13-12-10-|  /  \
E|-------------------------------------------| /    \

Then it goes up a few steps, repeat this twice also

E|--------------------------------------------|
B|--------------------------------------------|
G|-19-----19-----19---------------------------|
D|---19-19--19-19--19-19-19-19-17-19-20-19-17-|
A|--------------------------------------------|
E|--------------------------------------------|

E|----------------------------------------------| \    /
B|----------------------------------------------| \  /
G|----------------------------------------------| \/
D|----------------------------------------------| /\   2
A|-20-17-17-17-20-17-17-19-20-19-17-19-20-19-17-|  /  \
E|----------------------------------------------| /    \

Or...
(Riff 2 =Guitar 2=)
"I Don't know why they keep pumpin' its something..."

E|-------------------------------------------------|
B|-------------------------------------------------|
G|-------------------------------------------------|
D|-12-12-12-12-12-12-12-12-12-12-12-12-12-12-12-12-|
A|-------------------------------------------------|
E|-------------------------------------------------|

E|-------------------------------------------------| \    /
B|-------------------------------------------------| \  /
G|-------------------------------------------------| \/
D|-5--5--5--5--5--5--5--5--7--7--7--7--7--7--7--7--| /\   4
A|-------------------------------------------------| /  \
E|-------------------------------------------------| /    \

The song repeats to chorus. Just listen to the song.
This is my first tab of many to come!
Again, please rate 5 stars!
00:00 / 00:00
Outros vídeos desta música
Repetir
Outros vídeos desta música
    • ½ Tom
    • A
    • Bb
    • B
    • C
    • Db
    • D
    • Eb
    • E
    • F
    • F#
    • G
    • Ab
  • Adicionar à lista

Afinação da cifra

Afinador online

    0 comentários

    Ver todos os comentários

    Entre para o Cifra Club PRO

    Tenha acesso a benefícios exclusivos no App e no Site

    • Chega de anúncios

    • Mais recursos no app do Afinador

    • Atendimento Prioritário

    • Aumente seu limite de lista

    • Ajude a produzir mais conteúdo

    00:00 / 00:00

    Cifra Club Pro

    Aproveite o Cifra Club com benefícios exclusivos e sem anúncios
    Cifra Club Pro
    Aproveite o Cifra Club com benefícios exclusivos e sem anúncios
    OK