Cifra Club

Lose Control

Teddy Swims

Cifra: Principal (violão e guitarra)
Selo Cifra Club: esta cifra foi revisada para atender aos critérios oficiais da nossa Equipe de Qualidade.
tom: F#m
[Intro] F#m

[Primeira Parte]

 F#m
Something's got a hold of me lately
       A
No, I don't know myself anymore
 D
Feels like the walls are all closin' in
         Db7
And the devil's knockin'

At my door, woah

F#m
    Out of my mind, how many times

Did I tell you 
     A
I'm no good at bein' alone?
            D
Yeah, it's takin' a toll on me

Tryin' my best to keep
      Db7
From tearin' the skin off my bones

Don't you know?

[Refrão]

F#m             A
    I lose control
                 D
When you're not next to me 

(when you're not here with me)
     Db7
I'm fallin' apart 

Fight in front of you, can't you see?

F#m             A
    I lose control
                 D
When you're not next to me, mmm
                Db7
Yeah, you're breakin' my heart, baby

You make a mess of me

[Segunda Parte]

F#m
    Problematic
                        A
Problem is I want your body

Like a fiend, like a bad habit
                     D
Bad habits hard to break

When I'm with you
                                 Db7
Yeah, I know I could do it on my own

But I want that real full Moon

Black magic, and it takes two

F#m
    Problematic
                      A
Problem is, when I'm with you

I'm an addict
                   D
And I need some release

My skin in your teeth
                                   Db7
Can't see the forest through the trees

Got me down on my knees

Darlin', please, oh

[Refrão]

F#m              A
     I lose control
                 D
When you're not next to me 

(when you're not here with me)
     Db7
I'm fallin' apart 

Fight in front of you, can't you see?

F#m             A
    I lose control
                 D
When you're not next to me, mmm
                Db7
Yeah, you're breakin' my heart, baby

You make a mess of me

[Solo] F#m  A  D  Db7 

Parte 1 de 8

E|------------------------------------|
B|----17-19-19b22--19/----------------|
G|-/18--------------------------------|
D|------------------------------------|
A|------------------------------------|
E|------------------------------------|

Parte 2 de 8

E|------------------------------------|
B|-17b19r17b19------------------------|
G|-------------/18~----14-16-16/18-16-|
D|------------------/16---------------|
A|------------------------------------|
E|------------------------------------|

Parte 3 de 8

E|------------------------------------|
B|-------------------------18--19b21--|
G|-----14-16-16/18-16~-13~------------|
D|-/16--------------------------------|
A|------------------------------------|
E|------------------------------------|

Parte 4 de 8

E|-14-12------------------------------|
B|-------14-13-12-10----10-12/14-10---|
G|-------------------11---------------|
D|------------------------------------|
A|------------------------------------|
E|------------------------------------|

Parte 5 de 8

E|------------------------------------|
B|------------------------------------|
G|-11-9-------------------------9-----|
D|------11-10-9---7-9-7-9--/11----11--|
A|--------------9---------------------|
E|------------------------------------|

Parte 6 de 8

E|------------------------------------|
B|-----10-12-12/14-12-----------------|
G|-/11--------------------------------|
D|------------------------------------|
A|------------------------------------|
E|------------------------------------|

Parte 7 de 8

E|----------------12------------------|
B|----10-12-12b14----12b14------------|
G|-11---------------------------------|
D|------------------------------------|
A|------------------------------------|
E|------------------------------------|

Parte 8 de 8

E|------------------16~--19b21r19b22--|
B|----10-12-9~-14~--------------------|
G|-11---------------------------------|
D|------------------------------------|
A|------------------------------------|
E|------------------------------------|

F#m             A
    I lose control
                 D
When you're not next to me 

(when you're not here with me)
     Db7
I'm fallin' apart 

Fight in front of you, can't you see?

F#m             A
    I lose control
                 D
When you're not next to me, mmm
                Db7
Yeah, you're breakin' my heart, baby
                      F#m
You make a mess of me
Outros vídeos desta música
    26.618 exibições
    • Simplificar cifra
      • ½ Tom
      • Am
      • Bbm
      • Bm
      • Cm
      • C#m
      • Dm
      • Ebm
      • Em
      • Fm
      • F#m
      • Gm
      • G#m
    • Adicionar à lista

    Afinação da cifra

    Afinador online

      0 comentários

      Ver todos os comentários

      Entre para o Cifra Club PRO

      Tenha acesso a benefícios exclusivos no App e no Site

      • Chega de anúncios

      • Badges exclusivas

      • Mais recursos no app do Afinador

      • Atendimento Prioritário

      • Aumente seu limite de lista

      • Ajude a produzir mais conteúdo

      Cifra Club Pro

      Aproveite o Cifra Club com benefícios exclusivos e sem anúncios
      Cifra Club Pro
      Aproveite o Cifra Club com benefícios exclusivos e sem anúncios
      Ops (: Contenido disponible sólo en portugués.
      OK