Cifra Club

Harry Potter Theme

Temas de Filmes

Cifra: Principal (violão e guitarra)
Selo Cifra Club: esta cifra foi revisada para atender aos critérios oficiais da nossa Equipe de Qualidade.
tom: A
E|--0--3-2-0--7-5--2--0--3-2---1-----|
B|0--------------------------4---0---|
G|-----------------------------------|
D|-----------------------------------|
A|-----------------------------------|
E|-----------------------------------|

E|--0--3-2-0--7-10--9-8--5-8--7-6----|
B|0-------------------------------0--|
G|-----------------------------------|
D|-----------------------------------|
A|-----------------------------------|
E|-----------------------------------|

E|3-0--3-7--3-7--3-8--7-6--2-3--7-6--|
B|----------------------------------0|
G|-----------------------------------|
D|-----------------------------------|
A|-----------------------------------|
E|-----------------------------------|

E|--7--3-7--3-7--3-10--9-8--5-8--7-6-|
B|0----------------------------------|
G|-----------------------------------|
D|-----------------------------------|
A|-----------------------------------|
E|-----------------------------------|

E|2--3-0----0--3-2-0--7-10--9-8--5-8-|
B|--------0--------------------------|
G|-----------------------------------|
D|-----------------------------------|
A|-----------------------------------|
E|-----------------------------------|

E|7-6-----3-0--0---------------------|
B|-----0-----------------------------|
G|-----------------------------------|
D|-----------------------------------|
A|-----------------------------------|
E|-----------------------------------|
Outros vídeos desta música
    224.011 exibições
      • ½ Tom
      • A
      • Bb
      • B
      • C
      • Db
      • D
      • Eb
      • E
      • F
      • F#
      • G
      • Ab
    • Adicionar à lista

    Afinação da cifra

    Afinador online

      0 comentários

      Ver todos os comentários

      Conseguiu tocar?

      163Tocaram11Ainda não

      Grave um vídeo tocando Harry Potter Theme e nos envie!

      Toque também

      1. Imagem do artista Guilherme ArantesUm Dia, Um Adeus Guilherme Arantes
      2. Imagem do artista A Turma do Balão MágicoSuper Fantástico A Turma do Balão Mágico
      3. Imagem do artista Maurício ManieriBem Querer Maurício Manieri
      4. Imagem do artista Trem da AlegriaUni Duni Tê Trem da Alegria

      Entre para o Cifra Club PRO

      Tenha acesso a benefícios exclusivos no App e no Site

      • Chega de anúncios

      • Badges exclusivas

      • Mais recursos no app do Afinador

      • Atendimento Prioritário

      • Aumente seu limite de lista

      • Ajude a produzir mais conteúdo

      Cifra Club Pro

      Aproveite o Cifra Club com benefícios exclusivos e sem anúncios
      Cifra Club Pro
      Aproveite o Cifra Club com benefícios exclusivos e sem anúncios
      Ops (: Contenido disponible sólo en portugués.
      OK