Cifra Club

Titanic

Temas de Filmes

Cifra: Principal
exibições 702.550
Tom: E
[Intro]  C#m  B  A  B

E|---------------------7---4-7-7/9---7-----|
B|-5h7-7/9---10p9p7/5/7----------------9-7-|
G|-----------------------------------------|
D|-----------------------------------------|
A|-----------------------------0------ ----|
E|-----0-----------------------------------|

E|------------------------7---4-7-7/9---7--|
B|-5-7-7/9---10p9p7/5/7---------------9-5--|
G|-----------------------------------------|
D|-----------------------------------------|
A|----------------------------------------5|
E|-----------------------------------------|

E               B
Every night in my dreams
   A         C#m  B
I see you I feel you
  E             B         A
That is how I know you go on

 E              B
Far across the distance
      A     C#m    B
And spaces between us
 E                 B         A
You have come to show you go on

 E/D   B     A          B
Near, far, wherever you are
   C#m              B            A  B
I believe that the heart does go on
C#m   B        A         B
Once more, you open the door
            C#m        B
And you're here in my heart and
    A            B      E
My heart will go on and on

                  B
Love can touch us one time
     A        C#m  B
And last for life time
E          B                 A
And never let go till we're gone
 E               B               A       C#m     B
Love was when I loved you, one true time I hold to
E                B         A
In my life we'll always go on

 E/D   B     A          B
Near, far, wherever you are
   C#m              B            A  B
I believe that the heart does go on
C#m   B        A         B
Once more, you open the door
            C#m        B
And you're here in my heart and
    A            B      E
My heart will go on and on


( C#m  B  A  B  C#m  B  A  Bsus4 )

 Fm     Eb           Db        Eb
You're hear there's nothing I fear
        Fm          Eb           Db  Eb
And I know that my heart will go on
 Fm     Eb      Db       Eb
We'll stay forever this way
         Fm         Eb
You are safe in my heart
        Db           Eb     Fm  Eb  Db  Fm  Eb  Db  Fm
And my heart will go on and on

( Eb  Db  Ab  Eb  Db  Ab )
Acordes para:
    Colaboração e revisão:

    0 comentários

      mostrar mais comentários

      Conseguiu tocar?

      116tocaram4ainda não

      Grave um vídeo tocando Titanic e mande pra gente!

      00:00 / 00:00
      outros vídeos desta música
      repetirqualidadeautomática
      Outro vídeos desta música
        00:00 / 00:00
        automática
        OK