Cifra Club

Titanic

Temas de Filmes

Cifra: Principal
exibições 689.623
Tom: A
Violão Solo

Introdução


E|---------------------7---4-7-7/9---7---|-------------------------7---4-7-7/9---7-------|
B|-5h7-7/9---10p9p7/5/7----------------9 7---|-5-7-7/9---10p9p7/5/7----------------9-5---|
G|----------------------------------------|----------------------------------------------|
D|----------------------------------------|----------------------------------------------|
A|-----------------------------0------ ---|------------------------------------------5---|
E|-----0---------------------------------|-----------------------------------------------|


Base


E|----------------------------------------|----------------------------------------|
B|-5--5-5-5/4-4h5---5-4-4h5-7-7/9--7------|-5--5-5-5/4-4h5---4p0-------------------|
G|----------------------------------------|----------------------------------------|
D|----------------------------------------|----------------------------------------|
A|----------------------------------------|----------------------------------------|
E|----------------------------------------|----------------------------------------|


Refrão


E|---------------------------------------------------------------------------------|
B|-5---5-5/7--7/9---9/12--10--9-7---9--9/10-9---7--4--4/5---5-4--4/5--7--7/9--7----|
G|---------------------------------------------------------------------------------|
D|---------------------------------------------------------------------------------|
A|---------------------------------------------------------------------------------|
E|---------------------------------------------------------------------------------|



Violão Base

Introdução


E|---------0---------------2---------------0---------------2-----------------------|
B|-------0---0---0-------4---4---4-------2---2---2-------4---4---4-----------------|
G|-----1-------1-------4-------4-------2-------2-------4-------4-------------------|
D|---2---------------4---------------2---------------4-----------------------------|
A|-----------------2---------------0---------------2-------------------------------|
E|-0-------------------------------------------------------------------------------|


E|---------0---------------2---------------0-------0-------------------------------|
B|-------0---0---0-------4---4---4-------2---2---2-0-------------------------------|
G|-----1-------1-------4-------4-------2-------2---2-------------------------------|
D|---2---------------4---------------2-------------2-------------------------------|
A|-----------------2---------------0---------------0-------------------------------|
E|-0-------------------------------------------------------------------------------|


Base


E|---------0---------------2---------------0---------------2-----------------------|
B|-------0---0---0-------4---4---4-------2---2---2-------4---4---4-----------------|
G|-----1-------1-------4-------4-------2-------2-------4-------4-------------------|
D|---2---------------4---------------2---------------4-----------------------------|
A|-----------------2---------------0---------------2-------------------------------|
E|-0-------------------------------------------------------------------------------|


Refrão

E  D7  A7  D7  C#m  D7  A7  D7


Violão Baixo

Base


E|---------------------------------------------------------------------------------|
B|---------------------------------------------------------------------------------|
G|---------------------------------------------------------------------------------|
D|---------------------------------------------------------------------------------|
A|-----------------2------------------------------2--------------------------------|
E|-0------------5---------------4--5-----------4-----------------------------------|


Refrão


E|---------------------------------------------------------------------------------|
B|---------------------------------------------------------------------------------|
G|---------------------------------------------------------------------------------|
D|---------------------------------------------------------------------------------|
A|-----------------2---------------------------4--2--------------------------------|
E|-0------------5---------------4--5-----------------------------------------------|


E|---------------------------------------------------------------------------------|
B|---------------------------------------------------------------------------------|
G|---------------------------------------------------------------------------------|
D|---------------------------------------------------------------------------------|
A|-4---------------2---------------------------4--2--------------------------------|
E|--------------4---------------4--5-----------------------------------------------|
Acordes para:
    Colaboração e revisão:

    0 comentários

      mostrar mais comentários

      Conseguiu tocar?

      116tocaram4ainda não

      Grave um vídeo tocando Titanic e mande pra gente!

      00:00 / 00:00
      outros vídeos desta música
      repetirqualidadeautomática
      Outro vídeos desta música
        00:00 / 00:00
        automática
        OK