Cifra Club

Bob Esponja

Temas de TV

Cifra: Principal
exibições 451.473
Tom: B
Riff principal:
E|-----------------------|
B|---9----9------9-----9-|
G|---9----9------9-----9-|
D|-----------------------|
A|-7-----------7---------|
E|------7------------7---|

Riff 2:

E|---7-6-7-9-7--------7-6-7-9-7------7-6-7-9-7--------7-6-7-9-7----|
B|---7-6-7-9-7--9-----7-6-7-9-7------7-6-7-9-7--9-----7-6-7-9-7----|
G|--------------9--------------------------------9-----------------|
D|-----------------------------------------------------------------|
A|-----------------------------------------------------------------|
E|-----------------------------------------------------------------|

E|-0--12-12~----14-16-14-16-14---0-12-12~---12-14-15-15-15-14-12---|
B|-0--12-12~----14-16-14-16-14---0-12-12~---12-14-15-15-15-14-12---|
G|-----------------------------------------------------------------|
D|-----------------------------------------------------------------|
A|-----------------------------------------------------------------|
E|-----------------------------------------------------------------|

E|---7-6-7-9-7-------7-6-7-9-7-------------------------------------|
B|---7-6-7-9-7-------7-6-7-9-7-------------------------------------|
G|-----------------------------------------------------------------|
D|-----------------------------------------------------------------|
A|-----------------------------------------------------------------|
E|-----------------------------------------------------------------|

E|-11-12~-|
B|-11-12~-|
G|--------|
D|--------|
A|--------|
E|--------|
Acordes para:
    Colaboração e revisão:
    • Gabriel Lira
    • David Teixeira
    • Bruniim

    0 comentários

      mostrar mais comentários

      Conseguiu tocar?

      118tocaram2ainda não

      Grave um vídeo tocando Bob Esponja e mande pra gente!

      00:00 / 00:00
      outros vídeos desta música
      repetirqualidadeautomática
      Outro vídeos desta música
        00:00 / 00:00
        automática
        OK