Cifra Club

Pantera Cor-de-Rosa

Temas de TV

Cifra: Principal
exibições 710.791
Tom: A
(intro)

E|-----------------------------------------------------------------------------------
B|-----------------------------------------------------------------------------------
G|-----------------------------------------------------------------------------------
D|-----------------------------------------------------------------------------------
A|-----------------------------------------------------------------------------------
E|--6-7--9-10------------6-7--9-10---------------------------------------------------

x1
E|-----------------------------------------------------------------------------------
B|-----------------------------------------------------------------------------------
G|-----------------------------------------------------------------------------------
D|-----------------------------------------------------------------------------------
A|-----------------------------10-9------9-8---7-5-----------------------------------
E|--6--7----9--10----6-7--9-10------7-10-----------7-5-7-----------------------------

x1
E|-----------------------------------------------------------------------------------
B|-----------------------------------------------------------------------------------
G|-----------------------------------------------------------------------------------
D|-----------------------------------------------------------------------------------
A|----------------------------10-9-------9-8-----------------------------------------
E|--6--7---9--10----6-7--9-10-------7-10---------------------------------------------

x1
E|-----------------------------------------------------------------------------------
B|-----------------------------------------------------------------------------------
G|-----------------------------------------------------------------------------------
D|-----------------------------------------------------------------------------------
A|---------------------------10-9------9-8---7-5-------------------------------------
E|--6--7----9--10--6-7--9-10------7-10------------7-5-7------------------------------

x2
E|-----------------------------------------------------------------------------------
B|-----------------------------------------------------------------------------------
G|-----------------------------------------------------------------------------------
D|--9-7------------------------------------------------------------------------------
A|------9-7-------8-7-8-7-8-7-8-7----5-7---------5-7---------------------------------
E|----------10-7--------------------------7-5-7--------7-5-7-------------------------

(versão 2)
-------------------------------------
-------------------------------------
--------------------------------5/4--
--------------4/5---------4/5---5/4--
--4/5--6/7----4/5---6/7---4/5--------
--4/5--6/7----------6/7--------------

-----------------------------------
-----------------------------------
-----0----43------2p0-------------
-2---0----43------2p0----2p0---2--
-2------------------------2p0---2--
-----------------------------------

-------------------------------------
-------------------------------------
--------------------------------5/4--
--------------4/5---------4/5---5/4--
--4/5--6/7----4/5---6/7---4/5--------
--4/5--6/7----------6/7--------------

---------------------------ha--
-------------------------------
-----0----98----7/8--9--------
-2---0----98----7/8--9--------
-2-----------------------------
-------------------------------

-------------------------------------
-------------------------------------
--------------------------------5/4--
--------------4/5---------4/5---5/4--
--4/5--6/7----4/5---6/7---4/5--------
--4/5--6/7----------6/7--------------

-----------------------------------
-----------------------------------
-----0----43------2p0-------------
-2---0----43------2p0----2p0---2--
-2------------------------2p0---2--
-----------------------------------

--------------10/12--10---------------------
------------------------12--10-------10/11--
-------------------------------12--9--------
--------------------------------------------
--4/5--6/7----------------------------------
--4/5--6/7----------------------------------

-----------------------------------------
-11--10--8---8-----------8---8-----------
----------------9--7--9---------9--7--9--
-----------------------------------------
-----------------------------------------
-----------------------------------------

-----------------------------ha--
---------------------------------
---------------------------------
---------------------------------
--76---53----4/5--6/7----------
--76---53----4/5--6/7----------

(versão 3)

E|-----------------------------------------------------|
B|-----------------------------------------------------|
G|---------------------5-4-----9-7~--4-3-2-0-2-0-------|
D|---------4-5-----4-5-----7-9-------------------2-0-2-|
A|-4-5-6-7-----6-7-------------------------------------|
E|-----------------------------------------------------|

E|---------------------------------|
B|-----------------------------4-3-|
G|---------------------4-5---------|
D|---------4-5-----4-5-----4-5-----|
A|-4-5-6-7-----6-7-----------------|
E|---------------------------------|

E|-----------------------------------------------------|
B|-----------------------------------------------------|
G|---------------------5-4-----9-7~--4-3-2-0-2-0-------|
D|---------4-5-----4-5-----7-9-------------------2-0-2-|
A|-4-5-6-7-----6-7-------------------------------------|
E|-----------------------------------------------------|

E|-------------------------------------|
B|-------------------------------------|
G|-9-7---------------------------------|
D|-----9-7---7-8-7-8-7-8---5-7---------|
A|---------9-------------------5-7-5-7-|
E|-------------------------------------|

(versão 4)

(intro)
E|------------------------------
B|------------------------------
G|------------------------------
D|------------------------------
A|-4-5-6-7--------6-5-4-3-------
E|----------7_0------------3/8--

(parte 1)
E|------------------------------------------------
B|------------------------------------------------
G|---------------------5-4------4-3---2-0---------
D|---------4-5-----4-5-----4-5------------2-0-2---
A|-4-5-6-7-----6-7--------------------------------
E|------------------------------------------------

(parte 2)
E|-------------------------------------
B|----------------------------------5-4
G|----------------------5-4------------
D|---------4-5-----4-5-----4-5---5-----
A|-4-5-6-7-----6-7-------------7-------
E|-------------------------------------

(parte 3)
E|------------------------------------------------
B|------------------------------------------------
G|---------------------5-4------4-3---2-0---------
D|---------4-5-----4-5-----4-5------------2-0-2---
A|-4-5-6-7-----6-7--------------------------------
E|------------------------------------------------

(parte 4)
E|------------------------------------
B|----------5-------------------------
G|------------7-4-------2/3-2/3-2/3-2-
D|----------------7-5-----------------
A|-4-5-6-7------------7---------------
E|------------------------------------

(parte 5)
E|-----------3-------------------------
B|-------------5-3-5-5-----------------
G|-0-----------------------------------
D|---2-0-2-2---------------------------
A|-------------------------------------
E|-------------------------------------

(repete tudo)

(parte 5)
E|-----------3-------------------------
B|-------------5-3-5-5-----------------
G|-0-----------------------------------
D|---2-0-2-2---------------------------
A|-------------------------------------
E|-------------------------------------
Acordes para:

    0 comentários

      mostrar mais comentários

      Conseguiu tocar?

      52tocaram1ainda não

      Grave um vídeo tocando Pantera Cor-de-Rosa e mande pra gente!

      00:00 / 00:00
      outros vídeos desta música
      repetirqualidadeautomática
      Outro vídeos desta música
        00:00 / 00:00
        automática
        OK