Cifra Club

Aprenda

Marcha Soldado

Músicas Infantis

Cifra: Versão 3 (violão e guitarra)
tom: D
( Obs: se improvisar com a guitarra com uns efeitos de distorção, fica muito legal) 

                e|--3-3-0------0--3-3-3--0--------------|
                B|---------1-1-----------3--------------|
                G|--------------------------------------|
                D|--------------------------------------|
                A|--------------------------------------|
                E|--------------------------------------|
                Marcha soldado cabeça de papel...

                e|--0--1-1-0----3-3--5-3-1-0-------------------|
                B|------------3---------------3-1~-------------|
                G|---------------------------------------------|
                D|---------------------------------------------|
                A|---------------------------------------------|
                E|---------------------------------------------|
                ...Quem não marcha direito vai preso por quartel...

                e|--3-3-0------0--3-3-3--0---------------------|
                B|---------1-1-----------3---------------------|
                G|---------------------------------------------|
                D|---------------------------------------------|
                A|---------------------------------------------|
                E|---------------------------------------------|
                 ...O quartel pegou fogo, São Francisco deu sinal...

                e|--0--1-1-0----3-3--5-3-1-0-------------------|
                B|------------3---------------3-1~-------------|
                G|---------------------------------------------|
                D|---------------------------------------------|
                A|---------------------------------------------|
                E|---------------------------------------------|
                 ...Acuda acuda acuda Bandeira Nacional.
Compositor não encontrado.
Colaboração e revisão:
  • William Rizzo
  • Daiane Baroni
8.603 exibições
    • ½ Tom
    • A
    • Bb
    • B
    • C
    • Db
    • D
    • Eb
    • E
    • F
    • F#
    • G
    • Ab
  • Adicionar à lista

    0 comentários

    Ver todos os comentários

    Conseguiu tocar?

    3 Tocaram 0 Ainda não

    Grave um vídeo tocando Marcha Soldado e nos envie!

    00:00 / 00:00
    Outros vídeos desta música
    Repetir Qualidade Automático
    Outros vídeos desta música
    00:00 / 00:00
    Automático

    Cifra Club Pro

    Aproveite o Cifra Club com benefícios exclusivos e sem anúncios
    Cifra Club Pro
    Aproveite o Cifra Club com benefícios exclusivos e sem anúncios
    OK