Cifra Club

Masha e o Urso

Músicas Infantis

Cifra: Principal (violão e guitarra)
Selo Cifra Club: esta cifra foi revisada para atender aos critérios oficiais da nossa Equipe de Qualidade.
tom: F (forma dos acordes no tom de G) Afinação: D G C F A D
E|------------------|
B|---3----3---------|
G|----2----0--------|
D|------------------|
A|------------------|
E|------------------|

E|------------------|
B|-3--3--3--3-5-3---|
G|--2--2--2------0--|
D|------------------|
A|------------------|
E|------------------|

E|------------------|
B|-0-0-3-8-7-7-7-5-3|
G|------------------|
D|------------------|
A|------------------|
E|------------------|

E|------------------|
B|-3--3-5-7-8-------|
G|------------------|
D|------------------|
A|------------------|
E|------------------|

E|--------------------|
B|-10-8-7-5-10-8-7-5-3|
G|--------------------|
D|--------------------|
A|--------------------|
E|--------------------|


00:00 / 00:00
Outros vídeos desta música
Repetir
Outros vídeos desta música
22.862 exibições
    • ½ Tom
    • A
    • Bb
    • B
    • C
    • Db
    • D
    • Eb
    • E
    • F
    • F#
    • G
    • Ab
  • Adicionar à lista

Afinação da cifra

Afinador online

    0 comentários

    Ver todos os comentários

    Entre para o Cifra Club PRO

    Tenha acesso a benefícios exclusivos no App e no Site

    • Chega de anúncios

    • Mais recursos no app do Afinador

    • Atendimento Prioritário

    • Aumente seu limite de lista

    • Ajude a produzir mais conteúdo

    00:00 / 00:00

    Cifra Club Pro

    Aproveite o Cifra Club com benefícios exclusivos e sem anúncios
    Cifra Club Pro
    Aproveite o Cifra Club com benefícios exclusivos e sem anúncios
    OK