Cifra Club

Aprenda

Nesta Rua

Músicas Infantis

Cifra: Principal (violão e guitarra)
tom: C
e|-0-0-55--------------------|--0-0-7-7-4--------8-7-5--------|
B|---------5------5-8-6-5----|------------5-6-5---------------|
G|-----------5------------4~-|--------------------------------|
D|--------------7------------|--------------------------------|
A|---------------------------|--------------------------------|
E|---------------------------|--------------------------------|
Nesta rua, nesta rua tem          ...que se chama, que se chama
um bosque...                         solidão...

e|--0-0-5-5-8-7-5-----------|---------7--4--------------------|
B|----------------8-6-5-8-6-|--5---5-------5------------------|
G|--------------------------|----7------------7--5--4---------|
D|--------------------------|--------------------------7~-----|
A|--------------------------|---------------------------------|
E|--------------------------|---------------------------------|
...dentro dele,dentro dele        ...que roubou, que roubou
 mora um anjo...                    meu coração

( continuação, toca de acordo com a primeira e segunda tab, com distorção fica mais legal)

Se eu roubei, se eu roubei seu coração
É porque tu roubastes o meu também
Se eu roubei, se eu roubei teu coração
É porque eu te quero tanto bem

Se esta rua se esta rua fosse minha
Eu mandava, eu mandava ladrilhar
Com pedrinhas, com pedrinhas de brilhante
Para o meu, para o meu amor passar
Compositor não encontrado.
Colaboração e revisão:
  • mathias daltro
  • Daiane Baroni
70.364 exibições
    • ½ Tom
    • A
    • Bb
    • B
    • C
    • Db
    • D
    • Eb
    • E
    • F
    • F#
    • G
    • Ab
  • Adicionar à lista

    0 comentários

    Ver todos os comentários

    Conseguiu tocar?

    5 Tocaram 3 Ainda não

    Grave um vídeo tocando Nesta Rua e nos envie!

    00:00 / 00:00
    Outros vídeos desta música
    Repetir Qualidade Automático
    Outros vídeos desta música
    00:00 / 00:00
    Automático

    Cifra Club Pro

    Aproveite o Cifra Club com benefícios exclusivos e sem anúncios
    Cifra Club Pro
    Aproveite o Cifra Club com benefícios exclusivos e sem anúncios
    OK