Cifra Club

Lindo És

Tempo de Semear

Cifra: Principal (violão e guitarra)
exibições 949.222
Tom: G#m
[Intro] G#m  E  B9  F#
        G#m  E  B9  F#

E|-7-6-7-6-7-6----------------------------------------|
B|-------------9----9-7-9-7-9-7/4~~---4-7---7~~-------|
G|----------------------------------------6-----------|
D|----------------------------------------------------|
A|----------------------------------------------------|
E|----------------------------------------------------|

G#m
 Lindo, lindo, lindo és
E
 Glória, glória, Eu Te dou
B9
 Jesus
F#
 Jesus
G#m
 Lindo, lindo, lindo és
E
 Glória, glória, Eu Te dou
B9
 Jesus
F#
 Jesus

( G#m  E  B9  F# )
( G#m  E  B9  F# )

E|-7-6-7-6-7-6----------------------------------------|
B|-------------9----9-7-9-7-9-7/4~~---4-7---7~~-------|
G|----------------------------------------6-----------|
D|----------------------------------------------------|
A|----------------------------------------------------|
E|----------------------------------------------------|

G#m
 Lindo, lindo, lindo és
E
 Glória, glória, Eu Te dou
B9
 Jesus
F#
 Jesus
G#m
 Lindo, lindo, lindo és
E
 Glória, glória, Eu Te dou
B9
 Jesus
F#
 Jesus
G#m
 Lindo, lindo, lindo és
E
 Glória, glória, Eu Te dou
B9
 Jesus
F#
 Jesus

    G#m             E
Me leva à sala do trono
                B9                     F#
Mostra a tua beleza, eu quero ver tua face
    G#m             E
Me leva à sala do trono
                B9                     F#
Mostra a tua beleza, eu quero ver tua face
    G#m             E
Me leva à sala do trono
                B9                     F#
Mostra a tua beleza, eu quero ver tua face
    G#m             E
Me leva à sala do trono
                B9                     F#
Mostra a tua beleza, eu quero ver tua face

( G#m  E  B9  F# )
( G#m  E  B9  F# )
Acordes para:

    0 comentários

    mostrar mais comentários

    Conseguiu tocar?

    72 tocaram 21 ainda não

    Grave um vídeo tocando Lindo És e mande pra gente!

    00:00 / 00:00
    outros vídeos desta música
    repetir qualidade Automático
    Outro vídeos desta música
    00:00 / 00:00
    Automático
    OK