Cifra Club

Aprenda

Baby

Tenacious D

Cifra: Principal (violão e guitarra)
tom: E

 Acorde:E
E|-------------------|
B|-------------------|
G|-----1---1---------|
D|-------------------|
A|---2---2---2-------|
E|-0-----------------|

 Acorde:F#m/E
E|---------------|
B|---------------|
G|-----2---2---------|
D|---------------|
A|---4---4---4--------|
E|-0-------------|

 Acorde:G#m/E
E|---------------|
B|---------------|
G|-----4---4---------|
D|---------------|
A|---6---6---6--------|
E|-0-------------|

 Acorde:C#m
E|---------------|
B|----5-----5---------|
G|------6------6--------|
D|--------6----------|
A|--4-------------|
E|---------------|

 Acorde:B      *O B tem duas etapas de dedilhado
E|-------------------|   
B|---4-----4---------|
G|-----4-----4-------|
D|-------4-----------|
A|-2-----------------|
E|-------------------|

 Acorde: 2º B( *B* )
E|------------2----|
B|------4---4------|
G|-----------------|
D|----4---4--------|
A|-2---------------|
E|-----------------|

 Acorde:A
E|----------0----------0---|
B|----2------2---2-------2-|
G|------2------2---2-------|
D|--------2----------2-----|
A|-0-----------------------|
E|-------------------------|

Formação dos acordes:
    E  F#m/E  G#m/E  C#m  B   A
E|-0----2-----4------4---2---0--|
B|-0----2-----4------5---4---2--|
G|-1----2-----4------6---4---2--|
D|-2----4-----6------6---4---2--|
A|-2----4-----6------4---2---0--|
E|-0----0-----0-----------------|


Verse 1:
  E    F#m/E  G#m/E            F#m/E
I cant get   to sleep tonight
   E      F#m/E     G#m/E   F#m/E
No matter how hard I try

Chorus 1:
            C#m            B
'Cause it's cold and it's dark
        C#m     B
And the wind is whistlin'
      A                         *B*
And I can't seem to put out the light

Verse 2:
E            F#m/E         G#m/E     F#m/E
Mamma's been searching for baby
    E           F#m/E        G#m/E     F#m/E
But baby's been tryin' to get home

Chorus 2:
            C#m           B
'Cause it's cold and it's dark
        C#m         B             A
And the moon cannot light the way
            *B*
And Daddy's gone *Bye Bye*
                E  F#m/E  G#m/E  F#m/E  E
I'm just a baby!   (ends in baby-ish crying)

*Spoken*


TAB: Feita por Eros Reifur(FB)
Composição de Kyle Gass
Colaboração e revisão:
  • Eros Reifur
27.878 exibições
    • ½ Tom
    • A
    • Bb
    • B
    • C
    • Db
    • D
    • Eb
    • E
    • F
    • F#
    • G
    • Ab
  • Adicionar à lista

    0 comentários

    Ver todos os comentários
    00:00 / 00:00
    Outros vídeos desta música
    Repetir Qualidade Automático
    Outros vídeos desta música
    00:00 / 00:00
    Automático

    Cifra Club Pro

    Aproveite o Cifra Club com benefícios exclusivos e sem anúncios
    Cifra Club Pro
    Aproveite o Cifra Club com benefícios exclusivos e sem anúncios
    OK