Cifra Club

Aprenda

Beelzeboss

Tenacious D

Cifra: Principal (violão e guitarra)
tom: D
Intro:
E|---------------------------------------------------|
B|---------------------------------------------------|
G|---------------------------------------------------|
D|---------------------------------------------------|
A|-7-77-7-7-7-8-88-8-8-8-9-99-9-9-9-10-1010-10-10-10-|
E|-5-55-5-5-5-6-66-6-6-6-7-77-7-7-7-8--8-8--8--8--8--|
E|----------------------------------------------------|
B|----------------------------------------------------|
G|----------------------------------------------------|
D|----------------------------------------------------|
A|-11-1111-11-11-11-12-1212-12-12-12-13-1313-13-13-13-|
E|-9--9-9--9--9--9--10-1010-10-10-10-11-1111-11-11-11-|
E|------------|   |----|
B|------------|   |----|
G|------------|   |----|
D|------------|4x |----|
A|-14-14-1414-|   |-14-| (2x)
E|-12-12-1212-|   |-12-|
Verso 1:
|----------------------------------------------------|
|----------------------------------------------------|
|----------------------------------------------------|
|----------------------------------------------------| 4x
|-76-xx-x-x-xx-76-xx-x-x-xx-76-xx-76-xx-76-xx-x-x-xx-|
|-54-xx-x-x-xx-54-xx-x-x-xx-54-xx-54-xx-54-xx-x-x-xx-|
Verso2
E|------------|
B|------------|
G|------------|
D|------------|
A|-12\-----12\|
E|-10\-----10\|
|----------------------------------------------|
|----------------------------------------------|
|----------------------------------------------|
|------------------------|4x-------------------|
|-7-xxxxxxxxx-9-xxx-5-xxx|  on 5th.. |-9*--5*--|
|-5-xxxxxxxxx-7-xxx-3-xxx|           |-7*--3*--|
Verso 3
E|-------------------------------------------------|
B|-------------------------------------------------|
G|-------------------------------------------------|
D|-------------------------------------------------| (3x)
A|-77-xx-77-xx-77-xx-77-xx--10-9-12-11-14-10-16-15-|
E|-55-xx-55-xx-55-xx-55-xx--8--7-10-9--12-11-14-13-|
E|-------------6-8-6---------------8*-|
B|-/6v-8-6-8-8--8---8-6-6-6h8p6-------|
G|------------------------------8-6---|
D|------------------------------------|
A|------------------------------------|
E|------------------------------------|
E|--------------------------------------------------|
B|--------------------------------------------------|
G|--------------------------------------------------|
D|--------------------------------------------------|(2x)
A|-10*---12*---8*--(xxxxx)-10-xx-10-xx-10-xx-10-XX--|
E|-8-----10----6---(xxxxx)-8--xx-8--xx-8--xx-8--XX--|

E|-------------------------------------------|
B|-------------------------------------------|
G|-------------------------------------------|
D|-------------------------------------------|
A|-12xx12xx12x10xx10xx10x9xx9xx9x10xx10xx10x-|
E|-10xx10xx10x8-xx8-xx8-x7xx7xx7x8-xx8-xx8-x-|
E|------------------------------|
B|------------------------------|
G|------------------------------|
D|------------------------------|(2x)
A|-12--12--10--10--9--9--10--10-|
E|-10--10--8---8---7--7--8---8--|
E|----------------------------------------------------------------|
B|---------------------------------------------------------------|
G|---------------------------------------------------------------|
D|---------------------------------------------------------------|(2x)
A|-1212121212121212-1010101010101010-99999999-1010101010101010---|
E|-1010101010101010-8-8-8-8-8-8-8-8--77777777-8-8-8-8-8-8-8-8----|
E|---------------------------------------|
B|---------------------------------------|
G|---------------------------------------|
D|---------------------------------------|
A|-12-12121212-12121212-1212121212121212-|
E|-10-10101010-10101010-1010101010101010-|
Interlúdio:
E|---------------------------------|
B|---------------------------------|
G|---------------------------------|
D|---------------------------------|
A|---------------------------------|
E|-7-5-7-57-55-7-555-7-5-7-57-55-7-|
E|-----------------------------------------------------------------|
B|-----------------------------------------------------------------|
G|-----------------------------------------------------------------|
D|-----------------------------------------------------------------|
A|5-3-5-35-33-5-333-5-3-5-35-33-5-7-5-7-57-55-7-555-7-5-7-57-55-7--|
E|-----------------------------------------------------------------|
E|---------------------------------|
B|---------------------------------|
G|---------------------------------|
D|---------------------------------|
A|-7-5-7-5-7-5-7-5-7-5-7-5-7-5-7-5-|
E|---------------------------------|
Outro:
|-------------------------|
|-------------------------|
|-------------------------|
|-------------------------|
|-3*-2*-5*-4*-7*-6*-9*-8*-|
|-1--0--3--2--5--4--7--6--|
E|-----------------------------------|
B|-----------------------------------|
G|-----------------------------------|
D|-----------------------------------|
A|-3*-2*-5*-4*-7*-6*-9*-8*-11*-10*---|
E|-1--0--3--2--5--4--7--6--9---8-----|
E|---------------------------------------------------|
B|---------------------------------------------------|
G|---------------------------------------------------|
D|---------------------------------------------------|
A|11-10-11-10-11-10-11-10-11-10-11-10-11-10-11-10-11-|
E|9--8--9--8--9--8--9--8--9--8--9--8--9--8--9--8--9--|
Composição de Kyle Gass / Liam Lynch
89.215 exibições
    • ½ Tom
    • A
    • Bb
    • B
    • C
    • Db
    • D
    • Eb
    • E
    • F
    • F#
    • G
    • Ab
  • Adicionar à lista

    0 comentários

    Ver todos os comentários
    00:00 / 00:00
    Outros vídeos desta música
    Repetir Qualidade Automático
    Outros vídeos desta música
    00:00 / 00:00
    Automático

    Cifra Club Pro

    Aproveite o Cifra Club com benefícios exclusivos e sem anúncios
    Cifra Club Pro
    Aproveite o Cifra Club com benefícios exclusivos e sem anúncios
    OK