Cifra Club

Aprenda

Dio

Tenacious D

Cifra: Principal (violão e guitarra)
tom: F
Intro: D
Riff 1:
E|------3p2--------0h2---------|
B|------------3----------------|
G|---------------2-------------|
D|-----------------------------|
A|-----------------------------|
E|-----------------------------|

D                                   (Riff 1)
Dio has rocked for a long long time
                                        D   Em
now its time for him to pass the torch
D                                       (Riff 1)
he has songs of wildabeasts and angels
           C          G           D
he has soared on the wings of a demon
C                         G            F
its time to pass the torch you're too old rock
        D
no more rockin' for you
C                     G
we're taking you to a home
         D
but we will sing a song about you

Em                                         C
and we will make sure that you're very well taken care of
Em                                            C C   A
you'll tell us secrets that you've learned ............auw!!

D               C            G
you're sauce will mix with ours
D                   C          G
and we'll make a good goulash baby
D            C      G
Diiiiiooooo time to go
F                           G                  D
you must give your cape and ceptor......to me
F                           G
and a smaller one for KG

 ( D  C  G ) (3x)
E|-13/15--10-------------------------------------------------------|
B|------------13--10--13/15--13------------------------------------|
G|-------------------------------13p12p10--12--10~-----------------|
D|--------------------------------------------------12-------12----|
A|-----------------------------------------------------10h11-------|
E|--------------------------------------------------------------10-|

E|-------------------------------------------------------------x---|
B|-------------------------------------------------------------7---|
G|-------------------------------------------------------------7---|
D|-------------------------------------------------------------7---|
A|--------------------------------12-10-9-7-10-9-8-6-8-7-5-3-5-5---|
E|-10p8-8h10-8h10-8h10-8h10-10-10------------------------------x---|
Composição de Tenacious D
Colaboração e revisão:
  • André Campos
  • cristian
16.818 exibições
    • ½ Tom
    • A
    • Bb
    • B
    • C
    • Db
    • D
    • Eb
    • E
    • F
    • F#
    • G
    • Ab
  • Adicionar à lista

    0 comentários

    Ver todos os comentários
    00:00 / 00:00
    Outros vídeos desta música
    Repetir Qualidade Automático
    Outros vídeos desta música
    00:00 / 00:00
    Automático

    Cifra Club Pro

    Aproveite o Cifra Club com benefícios exclusivos e sem anúncios
    Cifra Club Pro
    Aproveite o Cifra Club com benefícios exclusivos e sem anúncios
    OK