Cifra Club

Aprenda

Flash

Tenacious D

Cifra: Principal (violão e guitarra)
tom: G
Guitar 1        JB
|-----------------------------------------------------------------------------|
|-----------------------------------------------------------------------------|
|-----------------------------------------------------------------------------|
|-0h2-2-2-2-2-2-2-0h2--2-2-2-2-2-2-2-0h2--2-2-2-2-2-2-2-0h2--2-2-2-2-2-2-2-0h2|
|---0-0-0-0-0-0-0-0----0-0-0-0-0-0-0-0----0-0-0-0-0-0-0-0----0-0-0-0-0-0-0-0--|
|-----------------------------------------------------------------------------|

Guitar 2    KG
|-----------------------------------------------------------------------------|
|-----------------------------------------------------------------------------|
|-----------------------------------------------------------------------------|
|-----------------------------------------------------------------------------|
|-----------------------------------------------------------------------------|
|-----------------------------------------------------------------------------|

Guitar 1    JB
|-----------------------------------------------------------------------------|
|-----------------------------------------------------------------------------|
|-----------------------------------------------------------------------------|
|--2-2-2-2-2-2-2-0h2--2-2-2-2-2-2-2-0h2--2-2-2-2-2-2-2-0h2--2-2-2-2-2-2-2-0h2-|
|--0-0-0-0-0-0-0-0----0-0-0-0-0-0-0-0----0-0-0-0-0-0-0-0----0-0-0-0-0-0-0-0---|
|-----------------------------------------------------------------------------|

Guitar 2    KG
|-----------------------------------------------------------------------------|
|-----------------------------------------------------------------------------|
|--2------------------2------------------2-------------------2----------------|
|--0h2----------------0h2----------------0h2-----------------0h2--------------|
|--0------------------0------------------0-------------------0----------------|
|-----------------------------------------------------------------------------|

Guitar 1    JB
|-----------------------------------------------------------------------------|
|-----------------------------------------------------------------------------|
|-----------------------------------------------------------------------------|
|--0h2-2-2-2-0h2-2-2-0h2--------------0h2-2-2-2-0h2-2-2-0h2-------------------|
|--0-0-0-0-0-0-0-0-0-0-0--------------0-0-0-0-0-0-0-0-0-0-0-------------------|
|-----------------------------------------------------------------------------|

Guitar 2    KG                                                               |-----------------------------------------------------------------------------|
|-----------------------------------------------------------------------------|
|--------5~------------------------7~------------------------5-5~--7-7~-------|
|--5h7-7----7---5h7---5h7----5h7-7----7---5h7---5h7-----5h7--0-0---0-0--------|
|--0---0----0-0-0-0-0-0-0----0---0----0-0-0-0-0-0-0---0-0-0-------------------|
|-----------------------------------------------------------------------------|

Guitar 1        JB
|-----------------------------------------------------------------------------|
|-----------------------------------------------------------------------------|
|-----------------------------------------------------------------------------|
|--0h2-2-2-2-0h2-2-2-0h2--------------0h2-2-2-2-0h2-2-2-0h2-------------------|
|--0-0-0-0-0-0-0-0-0-0-0--------------0-0-0-0-0-0-0-0-0-0-0-------------------|
|-----------------------------------------------------------------------------|

Guitar 2        KG
|-----------------------------------------------------------------------------|
|-----------------------------------------------------------------------------|
|--7-/-9-9-9-9-9-9-9-9--9--7--5--7-7-7-7-7-7-7-7-7--5-4--0--0-0-0-0-0-0--~----|
|--0---0-0-0-0-0-0-0-0--0--0--0--0-0-0-0-0-0-0-0-0--0-0--7--7-7-7-7-7-7---~---|
|--------------------------------------------------------0--0-0-0-0-0-0----~--|
|-----------------------------------------------------------------------------|

Guitar 1        JB
|-----------------------------------------------------------------------------|
|-----------------------------------------------------------------------------|
|-----------------------------------------------------------------------------|
|--0h2-2-2-2-0h2-2-2-0h2--------------0h2-2-2-2-0h2-2-2-0h2-------------------|
|--0-0-0-0-0-0-0-0-0-0-0--------------0-0-0-0-0-0-0-0-0-0-0-------------------|
|-----------------------------------------------------------------------------|

Guitar 2        KG
|-----------0-----0--0-----0-------0---0-0-0---0-|----------------------------|
|---0-0--0--0--0--0--0--0--0-------0-0-0-0-0-0-0-|----------------------------|
|---5/12-12-12-12-12-12-12-12--\---5-5-5-5-5-5-5-|---x2------------------~----|
|---7/14-14-14-14-14-14-14-14--\---7-7-7-7-7-7-7-|------------------------~---|
|---0----0--0--0--0--0--0--0-------0-0-0-0-0-0-0-|-------------------------~--|
|------------------------------------------------|----------------------------|

Guitar 1        JB (hammer the guitar for the dynamic)
|-----------------------------------------------------------------------------|
|-----------------------------------------------------------------------------|
|--2-2-2-2-2-2-2-2-2-2-2--------------2-2-2-2-2-2-2-2-2-2-2-------------------|
|--0h2-2-2-2-0h2-2-2-0h2--------------0h2-2-2-2-0h2-2-2-0h2-------------------|
|--0-0-0-0-0-0-0-0-0-0-0--------------0-0-0-0-0-0-0-0-0-0-0-------------------|
|-----------------------------------------------------------------------------|

Guitar 2        KG    (hammer the guitar for the dynamic)
|-----------------------------------------------------------------------------|
|-----------------------------------------------------------------------------|
|--0-0-0-0-0-0-0-0-0-0-0-0--0-0-0-0-0-0-0-0-0-0-0-0---------------------------|
|--5-5-5-5-5-5-5-5-5-5-5-5--5-5-5-5-5-5-5-5-5-5-5-5---------------------------|
|--7-7-7-7-7-7-7-7-7-7-7-7--7-7-7-7-7-7-7-7-7-7-7-7---------------------------|
|--0-0-0-0-0-0-0-0-0-0-0-0--0-0-0-0-0-0-0-0-0-0-0-0---------------------------|

Guitar 1        JB
|-----------------------------------------------------------------------------|
|-----------------------------------------------------------------------------|
|-----------------------------------------------------------------------------|
|--0h2-2-2-2-0h2-2-2-0h2--------------0h2-2-2-2-0h2-2-2-0h2-------------------|
|--0-0-0-0-0-0-0-0-0-0-0--------------0-0-0-0-0-0-0-0-0-0-0-------------------|
|-----------------------------------------------------------------------------|

Guitar 2        KG
|-----------------------------------------------------------------------------|
|---0-----0-----0-----0-----0-----0-------------------------------------------|
|---5-----5-----5-----5-----5-----5-------------------------------------------|
|---7-----7-----7-----7-----7-----7-------------------------------------------|
|---0-----0-----0-----0-----0-----0-------------------------------------------|
|-----0-0---0-0---0-----0-0---0-0---0-----------------------------------------|

Guitar 1        JB (hammer the guitar for the dynamic)
|-----------------------------------------------------------------------------|
|-----------------------------------------------------------------------------|
|--2-2-2-2-2-2-2-2-2-2-2--------------2-2-2-2-2-2-2-2-2-2-2-------------------|
|--0h2-2-2-2-0h2-2-2-0h2--------------0h2-2-2-2-0h2-2-2-0h2-------------------|
|--0-0-0-0-0-0-0-0-0-0-0--------------0-0-0-0-0-0-0-0-0-0-0-------------------|
|-----------------------------------------------------------------------------|

Guitar 2        KG    (hammer the guitar for the dynamic)
|-----------------------------------------------------------------------------|
|-----------------------------------------------------------------------------|
|--0-0-0-0-0-0-0-0-0-0-0-0--0-0-0-0-0-0-0-0-0-0-0-0---------------------------|
|--5-5-5-5-5-5-5-5-5-5-5-5--5-5-5-5-5-5-5-5-5-5-5-5---------------------------|
|--7-7-7-7-7-7-7-7-7-7-7-7--7-7-7-7-7-7-7-7-7-7-7-7---------------------------|
|--0-0-0-0-0-0-0-0-0-0-0-0--0-0-0-0-0-0-0-0-0-0-0-0---------------------------|

Guitar 1        JB
|-----------------------------------------------------------------------------|
|-----------------------------------------------------------------------------|
|-----------------------------------------------------------------------------|
|--0h2-2-2-2-0h2-2-2-0h2--------------0h2-2-2-2-0h2-2-2-0h2-------------------|
|--0-0-0-0-0-0-0-0-0-0-0--------------0-0-0-0-0-0-0-0-0-0-0-------------------|
|-----------------------------------------------------------------------------|

Guitar 2        KG
|-----------------------------------------------------------------------------|
|---0-----0-----0-----0-----0-----0-------------------------------------------|
|---5-----5-----5-----5-----5-----5-------------------------------------------|
|---7-----7-----7-----7-----7-----7-------------------------------------------|
|---0-----0-----0-----0-----0-----0-------------------------------------------|
|-----0-0---0-0---0-----0-0---0-0---0-----------------------------------------|

Song;Now KG Plays:Guitar 2      KG              |-----------------------------------------------------------------------------|
|-----------------------------------------------------------------------------|
|-----------------------------------------------------------------------------|
|-0h2-2-2-2-2-2-2-0h2--2-2-2-2-2-2-2-0h2--2-2-2-2-2-2-2-0h2--2-2-2-2-2-2-2-0h2|
|---0-0-0-0-0-0-0-0----0-0-0-0-0-0-0-0----0-0-0-0-0-0-0-0----0-0-0-0-0-0-0-0--|
|-----------------------------------------------------------------------------|
Compositor não encontrado.
Colaboração e revisão:
  • Rodrigo Matsuura
1.927 exibições
    • ½ Tom
    • A
    • Bb
    • B
    • C
    • Db
    • D
    • Eb
    • E
    • F
    • F#
    • G
    • Ab
  • Adicionar à lista

    0 comentários

    Ver todos os comentários
    00:00 / 00:00
    Outros vídeos desta música
    Repetir Qualidade Automático
    Outros vídeos desta música
    00:00 / 00:00
    Automático

    Cifra Club Pro

    Aproveite o Cifra Club com benefícios exclusivos e sem anúncios
    Cifra Club Pro
    Aproveite o Cifra Club com benefícios exclusivos e sem anúncios
    OK