Cifra Club

Aprenda

Kielbasa

Tenacious D

Cifra: Principal (violão e guitarra)
tom: C
Base:
E|-------------------------------------------------|
B|--------------------------1---1-1----------------|
G|------3(bend)-0-3(bend)-0-0h2-0-0-------------1--|
D|------0-------0-0-------0-3---3-0h2p0-----0h2----|
A|--------------------------------3-------3--------|
E|--3-3--------------------------------------------|

E|-----------------------------------------|
B|--------------------------1---1---1------|
G|------3(bend)-0-3(bend)-0-0h2-0---0------|
D|------0-------0-0-------0-3---3---0h2p0--|
A|----------------------------------3------|
E|--3-3------------------------------------|

E|---------------------------------------|
B|--------------------------1---1-1------|
G|------3(bend)-0-3(bend)-0-0h2-0-0------|
D|------0-------0-0-------0-3---3-0h2p0--|
A|--------------------------------3------|
E|--3-3----------------------------------|

E|------------------------------------------|
B|---------------------------1---1---1------|
G|---------------------------0h2-0---0------|
D|-0h2p0---------------------3---3---0h2p0--|
A|----------2-2h3-2---2--------------3------|
E|--------3---------5---3-1-----------------|

Solo:
E|----------------------------------------|
B|-/11--11-11-11-11--8h10-8---------------|
G|-/12--12-12-12-12--------10-9-----------|
D|-------------------------------10--8----|
A|----------------------------------------|
E|----------------------------------------|

E|----------------------------------------|
B|----------------------------------------|
G|-------10-------------------------------|
D|-----8------8-10b11--10b12-8------------|
A|-/10-----10-----------------------------|
E|----------------------------------------|

End breakdown:
E|----------------------------------------|
B|----------------------------------------|
G|-----------------5-5-5-5-5-5-5-5--------|
D|-5-5-5-5-5-5-5-5-3-3-3-2-2-2-2-2--------|
A|-3-3-3-2-2-2-2-2-3-3-3-3-3-3-3-3--------|
E|-3-3-3-3-3-3-3-3------------------------|

E|-------------------|
B|-------------------|
G|-------------------|
D|--2222222233333----|
A|--2222222233333----|
E|--0000000011111----|

E|------xxxx-----xx-----xxxx-------xx-|
B|------xxxx-----xx-----xxxx-------xx-|
G|------xxxx-5-5-xx-9-9-xxxx-10-10-xx-|
D|--5-5-xxxx-5-5-xx-9-9-xxxx-10-10-xx-|
A|--5-5-xxxx-3-3-xx-7-7-xxxx-8--8--xx-|
E|--3-3-xxxx-----xx-----xxxx-------xx-|
Composição de Tenacious D
Colaboração e revisão:
  • Lucas Paula
15.186 exibições
    • ½ Tom
    • A
    • Bb
    • B
    • C
    • Db
    • D
    • Eb
    • E
    • F
    • F#
    • G
    • Ab
  • Adicionar à lista

    0 comentários

    Ver todos os comentários
    00:00 / 00:00
    Outros vídeos desta música
    Repetir Qualidade Automático
    Outros vídeos desta música
    00:00 / 00:00
    Automático

    Cifra Club Pro

    Aproveite o Cifra Club com benefícios exclusivos e sem anúncios
    Cifra Club Pro
    Aproveite o Cifra Club com benefícios exclusivos e sem anúncios
    OK