Cifra Club

Aprenda

Sasquatch

Tenacious D

Cifra: Principal (violão e guitarra)
tom: D
(Bm)        A              E                 F#
There was some scientists tryin to figure out the Sasquatch riddle
Bm       A                                E        F# G F#
Then they figured out it was a missing link.
Bm               A                     E                                      F#
In Search of Sasquatch... that was a kick-ass "In Search Of..."
Bm                 A        E
with Leonard Nimoy kickin out the *JAMS*.
Bm                   A               E           F#
He captured imagination.  Of people all around the globe
Bm                    A                  E           F# G F#
His name was Sasquatch... so I'm told...
Bm    A    E        F#       Bm       A    E         F# G F#  E
His legend's ancient in the ancient scribe of the indian tribe...     apache tribe.
Scientists have proven that the Sasquatch is real.  Take a look at the plastic cast of his
foot now you know he's real.  Listen real close to the audio tape not human no you know he's
real.  Couldn't be a man in a gorilla suit no fuckin' way you know he's real.  Real, real,
real real, real, real really real...... real.

( Bm  A  C  G )
Solo:
E|-------------------10----10--12--12^(whole step)-12--10-10-9--9--9--9--9--9--9--------|
B|-12-12-12-12-12-12----12-------------------------------------------------------10---7-|
G|--------------------------------------------------------------------------------------|
D|--------------------------------------------------------------------------------------|
A|--------------------------------------------------------------------------------------|
E|--------------------------------------------------------------------------------------|

     Bm   A
E|-------------------------------|
B|---3----3----------2-----2-----|
G|-----4----4----------2----2----|
D|-4----4-----4----2-----2----2--|
A|------(2)--------------(0)-----|
E|-------------------------------|
I hope there's no hard feelings.

Bm           A                       Bm
Sasquatch..... we know your legend's real.
Bm           A               (rest) Bm
Sasquatch..... we know your love is real.
Bm           A
Sasquatch..... you and Tenacious D., are.. real.
Compositor não encontrado.
Colaboração e revisão:
  • Jonathas Peretti
  • Gabriel
  • José Soares
8.506 exibições
    • ½ Tom
    • A
    • Bb
    • B
    • C
    • Db
    • D
    • Eb
    • E
    • F
    • F#
    • G
    • Ab
  • Adicionar à lista

    0 comentários

    Ver todos os comentários
    00:00 / 00:00
    Outros vídeos desta música
    Repetir Qualidade Automático
    Outros vídeos desta música
    00:00 / 00:00
    Automático

    Cifra Club Pro

    Aproveite o Cifra Club com benefícios exclusivos e sem anúncios
    Cifra Club Pro
    Aproveite o Cifra Club com benefícios exclusivos e sem anúncios
    OK