Cifra Club

The Metal

Tenacious D

Cifra: Principal
exibições 153.360
Tom: G
Solo Inicial:
E|-----------------------------------------------------------x-----|
B|-----------------------------------------------------------x-----|
G|-----------------------------------------------------------x-----|
D|-2---------------------------------2-----------------------x-----|
A|-2------------3p2p0h2p0-2h3p2p0----2-------------3p2p0h2---x-----|
E|-0-00--3^p0-9----------------------0-00--3^p0-0------------x-----|
PM   ..                                ..

E|-----------------------------------------------------------------|
B|-----------------------------------------------------------------|
G|-----------------------------------------------------------------| x1 Intro
D|-2---------------------------------3-3--5p3p2h3p2p0h2p0-2h3p2p0--| x4 Verse
A|-2-----------1-3p2p0h2p0-2h3p2p0----3-3---------------------------|
E|-0-00--3^p0-0----------------------1-1---------------------------|

PM   ..

E|----------------------------|
B|----------------------------|
G|----------------------------|
D|-2----------22--------------| x2
A|-2----------22--------------|
E|-0-00--3^p0-00--------------|
PM   ..

E|-----------------------------------------------------------------|
B|-----------------------------------------------------------------|
G|--9--7--9--7--9--10---9--7--9--7--12-11-10-----------------------|
D|--9--7--9--7--9--10---9--7--9--7--12-11-10-----------------------| x2
A|--7--5--7--5--7--8----7--5--7--5--10-9--8------------------------|
E|-----------------------------------------------------------------|

Bridge
      Em   D    C     Em   D    C
E|--7----5----3-----7----5----3-------------|
B|--8----7----5-----8----7----5-------------|
G|--9----7----5-----9----7----5-------------|
D|--9----7----5-----9----7----5---4-2-0-2---|
A|--7----5----3-----7----5----3---5-3-2-3---|
E|------------------------------------------|

      C    Bm   Em    C    Bm   Em
E|--8----7----7-----8----7----0-------------|
B|--8----7----8-----8----7----0-------------|
G|--9----7----9-----9----7----0-------------|
D|--10---9----9-----10---9----2-------------|
A|--10---9----7-----10---9----2-------------|
E|--8----7----------8----7----0-------------|

{INTRO/VERSE RIFF} x5
Cara aqui complica tua vida mas tenta fazer


Breakdown/Outro
E|--------------------------------|
B|--------------------------------|
G|--------------------------------|
D|--------------------------------| x2
A|------------/3-2--/6-5--/9-8----|
D|--0-----------------------------|
   (let ring)

E|---------------------------------------------|
B|---------------------------------------------|
G|---------------------------------------------|
D|--0-0-----10-9---0--0------------------------| x2
A|--0-0-----10-9---0--0------2h3p2p0-2p0-------|
D|--0-0--0--10-9---0--0--2p0-------------3p2---|
PM       .

    |3| |3|       |3| |3|       |3| |3|
E|-----------------------------------------------------------------|
B|-----------------------------------------------------------------|
G|-----------------------------------------------------------------|
D|-----------3-2-----------2-3-------------------------------------| x2
A|-----------3-2-----------2-3-----------/3-2--/6-5--/9-8----------|
D|--000-000--3-2--000-000--2-3--000-000----------------------------|
PM  ... ...       ... ...       ... ...

E|-----------------------------------------------------------------|
B|-----------------------------------------------------------------|
G|-----------------------------------------------------------------|
D|-----------------------------------------------------------------| x2
A|------3p0-2p0-------------0---------------3p2p0-------0-----0----|
D|--2p0---------0-2-2h3p2p0-0---------0h2-3-------0-2h3---3p2-0----|
Acordes para:
    Composição: Kyle GassColaboração e revisão:

    0 comentários

      mostrar mais comentários

      Conseguiu tocar?

      23tocaram0ainda não

      Grave um vídeo tocando The Metal e mande pra gente!

      00:00 / 00:00
      outros vídeos desta música
      repetirqualidadeautomática
      Outro vídeos desta música
        00:00 / 00:00
        automática
        OK