Cifra Club

Aprenda

The Metal

Tenacious D

Cifra: Principal (violão e guitarra)
tom: G
Afinação: D A D G B E

[Intro] E5  F5

(Riff 1)

   E5
E|----------------------------------------------------|
B|----------------------------------------------------|
G|----------------------------------------------------|
D|-2--------------------------------------------------|
A|-2-------------3p2p0-2p0-2h3p2p0--------------------|
E|-2-2-2--5p2-2---------------------------------------|
     p.m.     .

   E5
E|----------------------------------------------------|
B|----------------------------------------------------|
G|----------------------------------------------------|
D|-2--------------------------------------------------|
A|-2-------------3p2p0h2------------------------------|
E|-2-2-2--5p2-2---------------------------------------|
     p.m.     .

   E5
E|----------------------------------------------------|
B|----------------------------------------------------|
G|----------------------------------------------------|
D|-2--------------------------------------------------|
A|-2-------------3p2p0-2p0-2h3p2p0--------------------|
E|-2-2-2--5p2-2---------------------------------------|
     p.m.     .

   F5
E|----------------------------------------------------|
B|----------------------------------------------------|
G|----------------------------------------------------|
D|-3-----5p3/2h3p2p0h2p0--2h3p2p0---------------------|
A|-3--------------------------------------------------|
E|-3-3-3----------------------------------------------|
     p.m.  

(Riff 2)

E|----------------------------------------------------|
B|----------------------------------------------------|
G|----------------------------------------------------|
D|--2--2----------2-2--------2--2----------2-2--------|
A|--2--2------5p2-2-2--------2--2------5p2-2-2--------|
E|--2--2------5p2-2-2--------2--2------5p2-2-2--------|

[Primeira Parte]

(Riff 1)

You can't kill the metal
The metal will live on
Punk rock tried to kill the metal, but they failed
As they were smited to the ground

New wave tried to kill the metal, but they failed
As they were stricken down to the ground
Grunge tried to kill the metal, they failed
                (Riff 2)
As they were thrown to the ground

[Ponte]

E|----------------------------------------------------|
B|----------------------------------------------------|
G|-9--7--9----7--9-10-9----7--9-----7/12-11-10--------|
D|-x--x--x----x--x-x--x----x--x-----x-x--x--x---------| (2x)
A|-7--5--7----5--7-8--7----5--7-----5/10-9--8---------|
E|----------------------------------------------------|

[Segunda Parte]

   Em              D                C     
E|----------0---------------0---------------0---------|
B|-8---------------7----------------5----------5------|
G|------0-----0---------0------0--------0-------------|
D|----9---------------7---------------5---------------|
A|-7------7--------5------5---------3------3----------|
E|----------------------------------------------------|

    D
E|------------0---------------------------------------|
B|--7------------7------------------------------------|
G|-------0--------------------------------------------|
D|-----7----------------------------------------------|
A|--5------5------------------------------------------|
E|----------------------------------------------------|

   Em              D                C     
E|----------0---------------0---------------0---------|
B|-8---------------7----------------5----------5------|
G|------0-----0---------0------0--------0-------------|
D|----9---------------7---------------5---------------|
A|-7------7--------5------5---------3------3----------|
E|----------------------------------------------------|
 
    D  C  Bm C     Am                Bm11   
E|---------------------------0-----------------0------|
B|--7--5--3--5-----0h1---------1-----0h3---------2----|
G|-----------------------0-----------------0----------|
D|--7--5--4--5---------2-----------------4------------|
A|--5--3--2--3-----0-------0---------2-------2--------|
E|----------------------------------------------------|

  Em
E|----------------------------------------------------|
B|-----------------0------------0---------------------|
G|-----------0---0--------0---0-----------------------|
D|-----2---2---2--------2---2-------------------------|
A|---2---2------------2-------------------------------|
E|-2--------------------------------------------------|

                   Am                Bm11   
E|---------------------------0-----------------0------|
B|-----------------0h1---------1-----0h3---------2----|
G|-----------------------0-----------------0----------|
D|---------------------2-----------------4------------|
A|-----------------0-------0---------2-------2--------|
E|----------------------------------------------------|

  Em
E|--------------------------------12------------------|
B|-----------------0------------0---------------------|
G|-----------0---0--------0---0-----------------------|
D|-----2---2---2--------2---2-------------------------|
A|---2---2------------2-------------------------------|
E|-2--------------------------------------------------|
                                   H.N.

No one can destroy the metal
The metal will strike you down with a vicious blow
We are the vanquished foes of the metal
We tried to win for why we do not know

[Primeira Parte]

(Riff 1)

New wave tried to destroy the metal
But the metal had it's way
Grunge then tried to dethrone the metal
But the metal was in the way
Punk rock tried to destroy the metal
But metal was much too strong
Techno tried to defile the metal
But techno was proven wrong, yeah

"Metal, it comes from hell"

[Terceira Parte]

E|----------------------------------------------------|
B|----------------------------------------------------|
G|----------------------------------------------------|
D|-0--------------------------------------------------|
A|-0---3-2---3/6-5---6/9--8---------------------------|
E|-0--------------------------------------------------|

E|----------------------------------------------------|
B|----------------------------------------------------|
G|----------------------------------------------------|
D|-0-0-0----------------------------------------------|
A|-0-0-0--3-2---3/6-5---6/9--8------------------------|
E|-0-0-0----------------------------------------------|

E|----------------------------------------------------|
B|----------------------------------------------------|
G|----------------------------------------------------|
D|----------5--4--------------------------------------| (2x)
A|--0-0-----3--2--0-0--------2h3p2p0-2p0--------------|
E|--0-0--0--------0-0----2h3-------------3p2----------|

E|----------------------------------------------------|
B|----------------------------------------------------|
G|----------------------------------------------------|
D|----------------------------------------------------|
A|-0-0-0-0-0-0-3-2---0-0-0-0-0-0-2-3---0-0-0-0-0-0----|
E|-0-0-0-0-0-0-3-2---0-0-0-0-0-0-2-3---0-0-0-0-0-0----|

E|----------------------------------------------------|
B|----------------------------------------------------|
G|----------------------------------------------------|
D|----------------------------------------------------|
A|-3-2-3/6-5-6/9-8------------------------------------|
E|----------------------------------------------------|

[Final]

E|----------------------------------------------------|
B|----------------------------3-----------------------|
G|----------------------------2-----------------------|
D|----------------------------0-----------------------|
A|--2p0-3p0-2p0---------------0-------0-2p0---0-----0-|
E|--------------3p0--2h3p2p0--0---2h3-------3---2h3---|

E|----------------------------------------------------|
B|----------------------------------------------------|
G|----------------------------------------------------|
D|----------------------------------------------------|
A|----------------------------------------------------|
E|-3p2p0-0--------------------------------------------|

E|----------------------------------------------------|
B|----------------------------3-----------------------|
G|----------------------------2-----------------------|
D|----------------------------0-----------------------|
A|--2p0-3p0-2p0---------------0-------0-2p0---0-----0-|
E|--------------3p0--2h3p2p0--0---2h3-------3---2h3---|

E|----------------------------------------------------|
B|----------------------------------------------------|
G|----------------------------------------------------|
D|----------------------------------------------------|
A|----------------------------------------------------|
E|-3p2p0-0--------------------------------------------|
Composição de Kyle Gass
Colaboração e revisão:
162.615 exibições
    • ½ Tom
    • A
    • Bb
    • B
    • C
    • Db
    • D
    • Eb
    • E
    • F
    • F#
    • G
    • Ab
  • Adicionar à lista

    0 comentários

    Ver todos os comentários
    00:00 / 00:00
    outros vídeos desta música
    repetir qualidade Automático
    Outros vídeos desta música
    00:00 / 00:00
    Automático

    Cifra Club Pro

    Aproveite o Cifra Club com benefícios exclusivos e sem anúncios
    Cifra Club Pro
    Aproveite o Cifra Club com benefícios exclusivos e sem anúncios
    OK