Cifra Club

Aprenda

Tribute

Tenacious D

Cifra: Principal (violão e guitarra)
tom: C
Riff 1
E|-------------0-0-0-0-0-0-----0-------0-0-0-0-0-|
B|-------------1-1-1-1-1-1h3p1p0h1-----1-1-1-1-1-|
G|-----0h2-----2-2-2-2-2-2-----2-------2-2-2-2-2-|
D|-0h2-------2-2-2-2-2-2-2-----2-----2-2-2-2-2-2-|
A|---------0---0-0-0-0-0-----------0---0-0-0-0-0-|
E|-----------------------------------------------|

A long time ago, me and my brother Kyle here, we were hitchhiking
Down a long and lonesome road, all of a sudden there shined a
Shiny demon in the middle of the road. And he said

E|-------------------------------------------------------------|
B|-------------------------------------------------------------|
G|-------------------------------------------------------------|
D|-------------------------------------------------------------|
A|-0-0-0-0-0-0-0-0-0-0-0-0-0-0-0-0-0-0-0-0-0-0-0-0-0-0-0-0-0-0-|
E|-------------------------------------------------------------|
 PM. . . . . . . . . . . . . . . . . . . . . . . . . . . .
Play the best song in the world or I'll eat your souls

Riff 1
Well me and Kyle...we looked at eachother
And we each said...O.K.
       Am                          G
And we played the first thing that came to our heads
   F                           Am               G
It just so happened to be  the best song in the world
           F
It was the best song in the world
D                           F
Look into my eyes and it's easy to see
         C                                G
One and one make two, two and one make three,
         F
It was destiny.
D                               F
Once every hundred-thousand years or so,
          C                        G
When the sun doth shine and the moon doth glow
          F
And the grass doth grow...

Riif 1
Well needless to say, the beast was stunned
Whip crack with your swampy tail, and the beast was done
He asks us (snort) Be you angels?
And we said nay, we are but men.     Rock
D         F         C         G          F
Hiiiiiiiiiiiiiiiiiiiiiiiiiiiiiiiiiiiiiii
F                                              Am
Ohhwhoaowhoaoho   ohhwhoaowhoaoho  ohowhoahoaho   this is not
    G                    Am                          G      Am
The greatest song in the world  no this is just a tribute
                       G                Am
Couldn't remember the greatest song in the world no    no this is a

G      Am                   F                       Am
Tribute ho to the greatest song in the world   all-right
                      G                F
It was The Greatest Song in the world  all-right it is just a pissed

mother fucker its of the greatest song in the world
Wer em ur pow chewga fukay fu fly chuga flabbablabba  a flabbablabba
Ow        aaaaaaaaaaaaaaaaaaaaaaa   aaaaaaaaaaaaaaaaaaaaaaaaaaaaaaaaaa
A duuiuu ooioom fam chuga flaba bababa flagabubba abugga awoo mama lucifer

E|----------------------------------------------------------------------|
B|----------------------------------------------------------------------|
G|-----------10----------10-12b14----------12----------12-10----10b12~--|
D|-----10h12----12-10h12----------12-10h12----12-10h12-------12---------|
A|--12------------------------------------------------------------------|
E|----------------------------------------------------------------------|


       Am                                 G
And the peculiar thing is this my friends, the song we sang
                        Am
On that fateful night didn't actually sound anything
             G                    Am                    G
like this song.  This is just a tribute, you got to believe me,
         F            Am                       G            F
and I wish you were there, just a matter of opinion  aaahhh fuck
Am                          G                                          F
good God, Gotta love me now,  so surprised to find you can't stop it now,
                 G                                  Am
upfar    arrrullyupfar Rich mother fucker give upa aahhh


E|--15b16-15b16-15-13----13--------------------------------------|
B|--------------------15----15-13--------------------------------|
G|--------------------------------15-13----13-15b16-15b16p13-----| (ALL RIGHT!)
D|--------------------------------------15-------------------15--|
A|---------------------------------------------------------------|
E|---------------------------------------------------------------|

(somente power chords repetidamentes)

F5     G5    A5    B5

Am (corda por corda 2x)
Composição de Tenacious D
Colaboração e revisão:
225.492 exibições
    • ½ Tom
    • A
    • Bb
    • B
    • C
    • Db
    • D
    • Eb
    • E
    • F
    • F#
    • G
    • Ab
  • Adicionar à lista

    0 comentários

    Ver todos os comentários
    00:00 / 00:00
    outros vídeos desta música
    repetir qualidade Automático
    Outros vídeos desta música
    00:00 / 00:00
    Automático

    Cifra Club Pro

    Aproveite o Cifra Club com benefícios exclusivos e sem anúncios
    Cifra Club Pro
    Aproveite o Cifra Club com benefícios exclusivos e sem anúncios
    OK