Cifra Club

Solidão de Volta

Terno Rei

Cifra: Principal (violão e guitarra)
Selo Cifra Club: esta cifra foi revisada para atender aos critérios oficiais da nossa Equipe de Qualidade.
tom: D
[Tab - Riff Principal]

E|---------------------------------------|
B|---------------------------------------|
G|------------2--0-----0-----------0-----|
D|-4-4--4-4-4--------4---4-------4---4---|
A|---------------------------5-----------|
E|---------------------------------------|

E|---------------------------------------|
B|---------------------------------------|
G|---------------------------------------|
D|-4-4---4-4-4-2-0---2-4----4b5p4--------|
A|---------------------------------------|
E|---------------------------------------|

E|---------------------------------------|
B|---------------------------------------|
G|------------2--0-----0-----------0-----|
D|-4-4-4-4-4---------4---4-------4---4---|
A|----------------------------5----------|
E|---------------------------------------|

E|---------------------------------------|
B|---------------------------------------|
G|---------------------------------------|
D|-4-4---4-4-4-2-0---2-4----4b5p4--------|
A|---------------------------------------|
E|---------------------------------------|

[Primeira Parte]

[Tab - Primeira Parte]

E|---------------------------------------|
B|----7----------------------------------|
G|-------7--9--------9--7----------------|
D|-9--------7--9--9----------------------|
A|---------------------------------------|
E|---------------------------------------|

'Cê já tem a solidão de volta
Não precisa mais se explicar
Onde vai a ninguém mais importa
Onde vai agora?

[Pré-Refrão]

[Tab - Pré-Refrão]

    Em7     E7(9)
E|--7------------------------------7----|
B|--8------------------------------7----|
G|--7------------------------------7----|
D|--9------------------------------9----|
A|--------------------------------------|
E|--------------------------------------|

Em7                     E7(9)
Ouve-se que um belo horizonte
                Em7             E7(9)
Daqui de longe, não posso fazer nada
           Em7             E7(9)
Mas certamente, certamente
Em7       E7(9)           [Riff - Pré-Refrão]
Respirar, só tem um jeito

[Riff - Pré-Refrão]

E|--------------------------------------|
B|--------------------------------------|
G|--------------------------------------|
D|-7--5--4------------------------------|
A|--------------------------------------|
E|--------------------------------------|

[Segunda Parte]

[Tab - Riff Principal]

[Refrão]

Eu já tenho a solidão de volta
Não preciso mais me explicar
Onde vou a ninguém mais importa
Onde vou agora é

[Ponte]

[Tab - Ponte]

   G5        A5        E5
E|--------------------------------------|
B|--------------------------------------|
G|-------------------------7------------|
D|-----4---------5-------9---7----------| (3x)
A|---5---5-----7---7---7----------------|
E|-3---------5--------------------------|

   G5        A5        E5
E|--------------------------------------|
B|--------------------------------------|
G|--------------------------------------|
D|-----4---------5-------9--------------| (1x)
A|---5---5-----7---7---7----------------|
E|-3---------5--------------------------|

   G5        A5        E5
E|--------------------------------------|
B|--------------------------------------|
G|-------------------------7------------|
D|-----4---------5-------9---7----------| (1x)
A|---5---5-----7---7---7----------------|
E|-3---------5--------------------------|

   G5        A5        E5  G5
E|--------------------------------------|
B|--------------------------------------|
G|--------------------------------------|
D|-----4---------5-------9-5------------| (1x)
A|---5---5-----7---7---7---5------------|
E|-3---------5-------------3------------|

   G5       D        Em
E|--------------------------------------|
B|--------------------------------------|
G|--------------------------------------|
D|--4-------4--------2------------------|
A|--5-------5--------2------------------|
E|--3-------x--------x------------------|

G5           G5
   Aonde vou agora?
D              D
  Respirar lá fora
D                    Em
  Eu já tenho a solidão

[Tab - Riff Principal com Variação]

E|-------------------------------------------------------------------|
B|-------------------------------------------------------------------|
G|------------2--0-----0-----------0-------------0-----------0-------|
D|-4-4--4-4-4--------4---4-------4---4---------4---4-------4---4-----|
A|---------------------------5-----------5-------------5-----------5-|
E|-------------------------------------------------------------------|

E|-------------------------------------------------------------------|
B|-------------------------------------------------------------------|
G|--------------------------------------0-----------0----------------|
D|-4-4---4-4-4-2-0---2-4----4b5p4-----4---4-------4---4--------------|
A|--------------------------------------------5-----------5----------|
E|-------------------------------------------------------------------|

E|-------------------------------------------------------------------|
B|-------------------------------------------------------------------|
G|------------2--0-----0-----------0-------------0-----------0-------|
D|-4-4--4-4-4--------4---4-------4---4---------4---4-------4---4-----|
A|---------------------------5-----------5-------------5-----------5-|
E|-------------------------------------------------------------------|

E|--------------------------------------|
B|--------------------------------------|
G|--------------------------------------|
D|-4-4---4-4-4-2-0---2-4----4b5p4-------|
A|--------------------------------------|
E|--------------------------------------|

[Refrão]

Cê já tem a solidão
Eu já tenho a solidão
Não precisa mais se preocupar
Outros vídeos desta música
    70.232 exibições
      • ½ Tom
      • A
      • Bb
      • B
      • C
      • Db
      • D
      • Eb
      • E
      • F
      • F#
      • G
      • Ab
    • Adicionar à lista

    Afinação da cifra

    Afinador online

      0 comentários

      Ver todos os comentários

      Conseguiu tocar?

      19Tocaram8Ainda não

      Grave um vídeo tocando Solidão de Volta e nos envie!

      Toque também

      1. Imagem do artista GorduratransVcnvqnd Gorduratrans
      2. Imagem do artista Não Ao Futebol ModernoJaneiro Não Ao Futebol Moderno
      3. Imagem do artista Bona FortunaO Que Você Vê Bona Fortuna
      4. Imagem do artista VolantesMaçã Volantes

      Entre para o Cifra Club PRO

      Tenha acesso a benefícios exclusivos no App e no Site

      • Chega de anúncios

      • Badges exclusivas

      • Mais recursos no app do Afinador

      • Atendimento Prioritário

      • Aumente seu limite de lista

      • Ajude a produzir mais conteúdo

      Cifra Club Pro

      Aproveite o Cifra Club com benefícios exclusivos e sem anúncios
      Cifra Club Pro
      Aproveite o Cifra Club com benefícios exclusivos e sem anúncios
      Ops (: Contenido disponible sólo en portugués.
      OK