Cifra Club

365 Dias

Thaeme e Thiago

Cifra: Principal
exibições 388.138
Tom: C (com acordes na forma de G) Capotraste na 5ª casa
Intro: G  Em  C  Cm

    G                       Em7                   C9                   Cm     C9
E|----------------x------x---------------x-----x--------------x-----x|
B|---------3----3-x-3--3-x--------3----3-x-3-3-x-------3----3-x-3-3-x|
G|----0--0---0--0-x-0--0-x----0--0--0--0-x-0-0-x---0--0--0--0-x-0-0-x|
D|--0--0------0-0-x-0--0-x---2--2----2-2-x-2-2-x--2--2----2-2-x-2-2-x|
A|----------------x------x---------------x-----x-3------------x-3---x|
E|-3--------------x-3----x-0-------------x-0---x--------------x-----x|

E|-----------------|
B|-1-0-------------|
G|----2-0----------|
D|-------1-0-------|
A|------------0-1/2|
E|----------3------|

G
Ainda vou aonde a gente ia
Em
Pensando em te ver de novo
C                                         Cm
Minha esperança ainda fantasia nosso reencontro
G
Desenhei teu rosto no teto do meu quarto
Em
Pra dormir sempre te olhando
C
E ao fechar os olhos me vejo te amando
Cm
Por isso que eu acordo sempre chorando

Refrão:
G
Hoje faz, trezentos e sessenta e cinco dias
Em
Faz um ano que você se foi
C
Refazendo um resumo da minha vida
Vejo que tudo que construí não me valeu a pena
Cm
Porque tudo que eu fiz foi pensando em nós dois

    G                       Em7                   C9                   Cm     C9
E|----------------x------x---------------x-----x--------------x-----x|
B|---------3----3-x-3--3-x--------3----3-x-3-3-x-------3----3-x-3-3-x|
G|----0--0---0--0-x-0--0-x----0--0--0--0-x-0-0-x---0--0--0--0-x-0-0-x|
D|--0--0------0-0-x-0--0-x---2--2----2-2-x-2-2-x--2--2----2-2-x-2-2-x|
A|----------------x------x---------------x-----x-3------------x-3---x|
E|-3--------------x-3----x-0-------------x-0---x--------------x-----x|

E|-----------------|
B|-1-0-------------|
G|----2-0----------|
D|-------1-0-------|
A|------------0-1/2|
E|----------3------|

G
Ainda sei de cór seu telefone
Em
Sei decifrar os seus quinze sorrisos
C
Conheço a palmo todo o seu corpo
Cm
Que era o meu paraíso
G
Comprei o mesmo perfume que o seu
Em                              C
Passei na roupa que você deixou e durmo abraçado, inconformado.
                Cm
Me perguntando aonde foi que a gente errou.

Refrão:
G
Hoje faz, trezentos e sessenta e cinco dias
Em
Faz um ano que você se foi
C
Refazendo um resumo da minha vida
Vejo que tudo que construí não me valeu a pena
Cm
Porque tudo que eu fiz foi pensando em nós dois

                  G
E|--------------|
B|-1-0----------|
G|----2-0-------|
D|-------1-0----|
A|--------------|
E|----------3---|
Acordes para:
    Colaboração e revisão:

    0 comentários

      mostrar mais comentários

      Conseguiu tocar?

      65tocaram2ainda não

      Grave um vídeo tocando 365 Dias e mande pra gente!

      00:00 / 00:00
      outros vídeos desta música
      repetirqualidadeautomática
      Outro vídeos desta música
        00:00 / 00:00
        automática
        OK