Cifra Club

Deus da Força

Thalles Roberto

Cifra: Principal
exibições 426.120
Tom: C
[Solo Intro]: Am7  Dm  Am7  Dm  E5  Dm

E|---------------------------------------------------------------------------------------------------|
B|---------------------------------------------------------------------------------------------------|
G|-----------------------------------------------------------------0h2-------------------------------|
D|--------------0--0-----0------------------0--0-----0--0h2--2--2-------0--0-----0-----0-----0-------|
A|---0--0--0h3--------3-----3p0--0--0--0h3--------3---------------------------3-----3-----3-----3--0-|
E|---------------------------------------------------------------------------------------------------|

Riff:
E|---------------------------------------------------------------------------------------------------|
B|---------------------------------------------------------------------------------------------------|
G|---------------------------------------------------------------------------------------------------|
D|---------------------------------------------------------------------------------------------------|
A|----------5p4p3---------5p4p3---------5p4p3--5h7~--------------------------------------------------|
E|---5p4p3---------5p4p3---------5p4p3---------------------------------------------------------------|


 Am7            Dm
Força, Ele é o Todo-Poderoso
 Am7
Deus da força...
Dm                              E5
E contra Ele o inimigo não tem força
       Dm
A guerra é do Senhor
                               Am7
E a vitória é garantida na força

Am7            Dm
Força, Ele é o Todo-Poderoso
 Am7
Deus da força...
Dm                              E5
E contra Ele o inimigo não tem força
       Dm
A guerra é do Senhor
                               Am7
E a vitória é garantida na força

[Intro]
lon lon, alarilari...

Am7
Foi assim com moisés
Com braço forte, Deus liberta
O Seu povo, ali, das mãos de Faraó
Foi assim com Daniel
Na cova dos leões
E, meu irmão, vai ser
           E5
Assim com você

[Riff]
Esgotadas as possibilidades
De, um dia, a derrota conhecer
O Deus da força está contigo
O Deus da guerra é o Deus
Que pode tudo, tudo, tudo...

Am7            Dm
Força, Ele é o Todo-Poderoso
 Am7
Deus da força...
Dm                              E5
E contra Ele o inimigo não tem força
       Dm
A guerra é do Senhor
                               Am7
E a vitória é garantida na força

Am7            Dm
Força, Ele é o Todo-Poderoso
 Am7
Deus da força...
Dm                              E5
E contra Ele o inimigo não tem força
       Dm
A guerra é do Senhor
                               Am7
E a vitória é garantida na força

 Am7
Sabe o que acontece
Quando está ali no quarto em oração?
Deus luta por você
E vence por você e te entrega
                
A vitória nas mãos

[Riff]
Esgotadas as possibilidades
De, um dia, a derrota conhecer
Especialista em causas impossíveis
O Deus que pode tudo,tudo, tudo...

Am7            Dm
Força, Ele é o Todo-Poderoso
 Am7
Deus da força...
Dm                              E5
E contra Ele o inimigo não tem força
       Dm
A guerra é do Senhor
                               Am7
E a vitória é garantida na força

Am7            Dm
Força, Ele é o Todo-Poderoso
 Am7
Deus da força...
Dm                              E5
E contra Ele o inimigo não tem força
       Dm
A guerra é do Senhor
                               Am7
E a vitória é garantida na força

[Am7  Dm  Am7  Dm  E5]
[Am7  Dm  Am7  Dm  E5]

Am7            Dm
Força, Ele é o Todo-Poderoso
 Am7
Deus da força...
Dm                              E5
E contra Ele o inimigo não tem força
       Dm
A guerra é do Senhor
                               Am7
E a vitória é garantida na força

Am7            Dm
Força, Ele é o Todo-Poderoso
 Am7
Deus da força...
Dm                              E5
E contra Ele o inimigo não tem força
       Dm
A guerra é do Senhor
                               Am7
E a vitória é garantida na força
Acordes para:
    Colaboração e revisão:
    • Simon Jesus

    0 comentários

      mostrar mais comentários

      Conseguiu tocar?

      84tocaram1ainda não

      Grave um vídeo tocando Deus da Força e mande pra gente!

      00:00 / 00:00
      outros vídeos desta música
      repetirqualidadeautomática
      Outro vídeos desta música
        00:00 / 00:00
        automática
        OK