Cifra Club

Deus da Força

Thalles Roberto

Tab de baixo: Principal
G|-----------------------------------------------------------------------------------------------|
D|-----------------------------------------------------------------------------------------------|
A|----------5-5--5h7--------5-5--3h5h7-7--10h12h5--3-5-3-3h5-3-5---------------------------------|  (6x)
E|--5-5--5h7--------5-5--5h7---------------------------------------------------------------------|

G|-----------------------------------------------------------------------------------------------|
D|-----------------------------------------------------------------------------------------------|
A|----------5-5--5h7--------5-5--5h7--------5-5--3h5h7-------------------------------------------|  (2x)
E|--5-5--5h7--------5-5--5h7--------5-5--5h7-----------------------------------------------------|

G|-----------------------------------------------------------------------------------------------|
D|-----------------------------------------------------------------------------------------------|
A|--------------------4h5h4--3h4h3--4h5h4--3h4h3--4h5h4--3h4h3--4-4-4-4-4-4-4-4------------------|
E|--5-5--5-5--5-5--5-5---------------------------------------------------------------------------|

G|-----------------------------------------------------------------------------------------------|
D|-----------------------------------------------------------------------------------------------|
A|----------5-5--5h7--------5-5--3h5h7-7--10h12h5--3-5-3-3h5-3-5---------------------------------|  (2x)
E|--5-5--5h7--------5-5--5h7---------------------------------------------------------------------|

G|-----------------------------------------------------------------------------------------------|
D|-----------------------------------------------------------------------------------------------|
A|--------------------4h5h4--3h4h3--4h5h4--3h4h3--4h5h4--3h4h3--4-4-4-4-4-4-4-4------------------|
E|--5-5--5-5--5-5--5-5---------------------------------------------------------------------------|

G|-----------------------------------------------------------------------------------------------|
D|-----------------------------------------------------------------------------------------------|
A|----------5-5--5h7--------5-5--3h5h7-7--10h12h5--3-5-3-3h5-3-5---------------------------------|  (2x)
E|--5-5--5h7--------5-5--5h7---------------------------------------------------------------------|

G|-----------------------------------------------------------------------------------------------|
D|-----------------------------------------------------------------------------------------------|
A|----5-5-5-5-5-5-5-5----------------------------------------------------------------------------|
E|-5-5-5-5-5-5-5-5-5-----------------------------------------------------------------------------|

G|-----------------------------------------------------------------------------------------------|
D|-----------------------------------------------------------------------------------------------|
A|----------5-5--5h7--------5-5--3h5h7-7--10h12h5--3-5-3-3h5-3-5---------------------------------|  (4x)
E|--5-5--5h7--------5-5--5h7---------------------------------------------------------------------|
exibições 31.838
Composição: Thalles Roberto Colaboração e revisão:
  • jose orlando

0 comentários

mostrar mais comentários

Conseguiu tocar?

12 tocaram 0 ainda não

Grave um vídeo tocando Deus da Força e mande pra gente!

00:00 / 00:00
outros vídeos desta música
repetir qualidade Automático
Outros vídeos desta música
00:00 / 00:00
Automático
OK