Cifra Club

Deus da Minha Vida

Thalles Roberto

Cifra: Solo
exibições 72.752
Tom: C
E|------------------------------------------|
B|-13h15-13---------------------------------|
G|-12----12-14-12---------------------------|
D|----------------x-------------------------|
A|------------------------------------------|
E|------------------------------------------|

E|------------------------------------------|
B|-10b------------10-------10---------------|
G|-10b------------10-------10b--------------|
D|------12p10-12------x-12--------12p10-12--|
A|------------------------------------------|
E|------------------------------------------|

E|------------------------------------------|
B|------------------------------------------|
G|-----10\9-------------------10--10--10----|
D|-/12------10-10/12~---10h12---------------|
A|------------------------------------------|
E|------------------------------------------|

E|------------------------------------------|
B|------------------------------------------|
G|-10-10-12p--12br---10----10---------------|
D|----------------------12----12~-----------|
A|------------------------------------------|
E|------------------------------------------|

E|------------------------------------------|
B|------------------------------------------|
G|-12b14r12-10------------------------------|
D|-------------12-11-10---------------------|
A|----------------------12-11-10------------|
E|-------------------------------13-10h13---|

E|------------------------------------------|
B|----------------------13~---15------------|
G|----------------12h14---------------------|
D|-------10h12/15---------------------------|
A|-10h12------------------------------------|
E|------------------------------------------|

E|--------------------12--------12----------|
B|------------------------------------------|
G|-------10----12b14-----12b14-----12b14----|
D|-10h12----12------------------------------|
A|------------------------------------------|
E|------------------------------------------|

E|-12---------------------------------------|
B|------------------------------------------|
G|----12br----10----10----------------------|
D|---------------12----12~------------------|
A|------------------------------------------|
E|------------------------------------------|

E|------------------------------------------|
B|------------------------------------------|
G|-----10-----10-----10-----10-----10-----10|
D|-/12-----12-----12-----12-----12-----12---|
A|------------------------------------------|
E|------------------------------------------|

E|------------------------------------------|
B|------------------------------------------|
G|----10-----10-----10-----10-----10-----10-|
D|-12-----12-----12-----12-----12-----12----|
A|------------------------------------------|
E|------------------------------------------|

E|------------------------------------------|
B|------------------------------------------|
G|-------------10----10b--12-10-12b14r12--10|
D|-12----10h12----12------------------------|
A|------------------------------------------|
E|------------------------------------------|

E|------------------------------------------|
B|-------------10b----------------------10b-|
G|-------------10b----------------------10b-|
D|-12~---10-12--------12p10-12~---10h12-----|
A|------------------------------------------|
E|------------------------------------------|

E|------------------------------------------|
B|-------------------------10---------------|
G|-------------------10----10--12-10-12--12~|
D|-12p10-12~---10h12----12------------------|
A|------------------------------------------|
E|------------------------------------------|
Acordes para:

    0 comentários

      mostrar mais comentários

      Conseguiu tocar?

      6tocaram2ainda não

      Grave um vídeo tocando Deus da Minha Vida e mande pra gente!

      00:00 / 00:00
      outros vídeos desta música
      repetirqualidadeautomática
      Outro vídeos desta música
        00:00 / 00:00
        automática
        Capítulos
        • Tocando Solo
        • Apresentação / Equipamentos
        • Solo (65 BPM) - Tab 1 a 13
        • Solo (82BPM) - Tab 1 a 13
        • Encerramento
        OK