Cifra Club

Deus da Minha Vida

Thalles Roberto

Tab de baixo: Principal
exibições 77.166
Introdução 

Parte 01 de 02

G|----------------------------------------------|
D|-------------------3-3h5-3-----------------8--|
A|-5-5-5-5--5-5-5-------------5-5-5-5--5-5-5----|
E|-----------------6----------------------------|

Parte 02 de 02

G|----------------------------------------------|
D|-3-3h5-3---------------------3-3h5-3----------|
A|---------5-5-5-5--5-5-5-----------------------|
E|-------------------------6\1------------------|

G|----------------------------------------------|
D|-----------------8----------------------------|
A|-5-5-5-5--5-5-5-------------------------------|
E|----------------------------------------------|

Primeira parte

Deus meu,pai meu...

Parte 01 de 04

G|----------------------------------------------|
D|-12-10--12-10-12-------------12-10--12-10-12--|
A|----------------------------------------------|
E|------------------10-10--10-------------------|

G|----------------------------------------------|
D|------------12-10--12-10----------------------|
A|----------------------------------------------|
E|-10-10--10---------------6--------------------|

Parte 02 de 04

G|----------------------------------------------|
D|----------12-10--12-10-12--------12-10-----12-|
A|----------------------------------------------|
E|-8/10--10-----------------10-10---------10----|

G|----------------------------------------------|
D|-10-12--------12-10--12-10-12-----------12-10-|
A|----------------------------------------------|
E|-------10-10------------------10-10--10-------|

G|----------------------------------------------|
D|----------------------------------------------|
A|----------------------------------------------|
E|-6--------------------------------------------|

Parte 03 de 04

G|----------------------------------------------|
D|----------------------------------------------|
A|-5-5-3--3h5-3--------------------3------------|
E|---------------3--3-3-3-3-3--3h5--------------|

G|----------------------------------------------|
D|----------------------------------------------|
A|-5-5-3--3h5-3-3/10-10-10-10-10--10h12-10\-----|
E|----------------------------------------------|

Parte 04 de 04

G|----------------------------------------------|
D|----------------------------------------------|
A|-5-5-3--3h5-3---------------------------------|
E|---------------3--3-3-3-3-3-3-3/--------------|

G|----------------------------------------------|
D|----------------------------------------------|
A|----------------------------------------------|
E|-6-6-6-6--6-6-6-6---6-6-6-6-------------------|

Refrão 

Parte 01 de 02 ( tocar 2x )

G|----------------------------------------------|
D|----------------------------------------------|
A|-1-1-1-1--1-1-1--1-1-1-1--1-1-1-1-1-----------|
E|----------------------------------------------|

Parte 02 de 02

G|----------------------------------------------|
D|----------------------------------------------|
A|-1-1-1-1--1-1-1--1-1-1-1--1-1-1-1-1---1-------|
E|----------------------------------------------|

Introdução 02

Parte 01 de 01

G|----------------------------------------------|
D|----------------------------------------------|
A|-------5--------5-------5------5--------------|
E|-6--8-----6--8-----6-8-----6-8----------------|

Segunda parte

Deus meu,pai meu...

Parte 01 de 04

G|----------------------------------------------|
D|----12-10--12-10-12--------12-10-----12-10-12-|
A|----------------------------------------------|
E|-10-----------------10-10---------10----------|

G|----------------------------------------------|
D|--------12-10------12-12-10-------------------|
A|----------------------------------------------|
E|-10-10---------10-----------6-----------------|


Parte 02 de 04

G|----------------------------------------------|
D|-12-12-10----12-10-12-----------12-10-12-10-12|
A|----------------------------------------------|
E|----------10----------10-10--10---------------|

G|----------------------------------------------|
D|--------12-10------12-10-12--------12-10------|
A|----------------------------------------------|
E|-10-10---------10------------10-10--------6---|

Parte 03 de 04

G|----------------------------------------------|
D|----------------------------------------------|
A|-5-5-3--3h5-3--------------------3------------|
E|---------------3--3-3-3-3-3--3h5--------------|

G|----------------------------------------------|
D|----------------------------------------------|
A|-5-5-3--3h5-3-3/10-10-10-10-10--10h12-10\-----|
E|----------------------------------------------|

Parte 04 de 04

G|----------------------------------------------|
D|----------------------------------------------|
A|-5-5-3--3h5-3---------------------------------|
E|---------------3--3-3-3-3-3-3-3/--------------|

G|----------------------------------------------|
D|----------------------------------------------|
A|----------------------------------------------|
E|-6-6-6-6--6-6-6-6---6-6-6-6-------------------|

Refrão 02 

Parte 01 de 04 ( tocar 2x )

G|----------------------------------------------|
D|----------------------------------------------|
A|-1-1-1-1--1-1-1--1-1-1-1--1-1-1-1-1-----------|
E|----------------------------------------------|

Parte 02 de 04

G|----------------------------------------------|
D|----------------------------------------------|
A|-1-1-1-1--1-1-1--5--5-3--5-3------------------|
E|----------------------------------------------|

G|----------------------------------------------|
D|----------------------------------------------|
A|-1-1-1-1--1-1-1-1--1-1-1-1--1-1-1-0-----------|
E|----------------------------------------------|

Parte 03 de 04 ( tocar 2x )

G|----------------------------------------------|
D|----------------------------------------------|
A|-1-1-1-1--1-1-1--1-1-1-1--1-1-1-1-1-----------|
E|----------------------------------------------|

Parte 04 de 04

G|----------------------------------------------|
D|----------------------------------------------|
A|-1-1-1-1--1-1-1--5--5-3--5-3------------------|
E|----------------------------------------------|

G|----------------------------------------------|
D|----------------------------------------------|
A|-1-1-1-1--1-1-1-1--1-1-1-1--1-1-1-1-----------|
E|----------------------------------------------|

G|----------------------------------------------|
D|--------------------------------5\------------|
A|-3-3-3-3--3-3-3-3--3-3-3-3--3-3---------------|
E|----------------------------------------------|

Solo de Guitarra 

Parte 01 de 02 ( tocar 3x )

G|----------------------------------------------|
D|----------------------------------------------|
A|-1-1--3-3--5-5-3-5-3--1-1--3-3--5--5-5-5-5----|
E|----------------------------------------------|

G|----------------------------------------------|
D|----------------------------------------------|
A|-5-5-5----------------------------------------|
E|----------------------------------------------|

Parte 02 de 02

G|----------------------------------------------|
D|----------------------------------------------|
A|-1-1--3-3--5-5-3-5-3--1-1-1-1--1-1-1-1--------|
E|----------------------------------------------|

G|----------------------------------------------|
D|----------------------------------------------|
A|-1-1-1-1--1-1-1-0-----------------------------|
E|----------------------------------------------|

Refrão 03 ( Final )

Parte 01 de 02 

G|----------------------------------------------|
D|----------------------------------------------|
A|-1-1-1-1--1-1-1--5-5-3-5-3--1-1-1-1--1-1-1----|
E|----------------------------------------------|

G|----------------------------------------------|
D|----------------------------------------------|
A|-5-5-3-5-3--1-1-1-1--1-1-1--5-5-3-5-3---------|
E|----------------------------------------------|

G|----------------------------------------------|
D|----------------------------------------------|
A|-1-1-1-1--1-1-1-1--1-1-1-1--1-1-1-0-----------|
E|----------------------------------------------|

Parte 02 de 02 

G|----------------------------------------------|
D|----------------------------------------------|
A|-1-1-1-1--1-1-1--5-5-3-5-3--1-1-1-1--1-1-1----|
E|----------------------------------------------|

G|----------------------------------------------|
D|----------------------------------------------|
A|-5-5-3-5-3--1-1-1-1--1-1-1--5-5-3-5-3--1------|
E|----------------------------------------------|

0 comentários

    mostrar mais comentários

    Conseguiu tocar?

    21tocaram2ainda não

    Grave um vídeo tocando Deus da Minha Vida e mande pra gente!

    00:00 / 00:00
    outros vídeos desta música
    repetirqualidadeautomática
    Outro vídeos desta música
      00:00 / 00:00
      automática
      OK