Cifra Club

Deus Me Ama

Thalles Roberto

Cifra: Original
exibições 118.878
Tom: C
Intro 2x: C9  Bb9

E|-15~15---17-13-15-12-13-15-13-12------------13-12/13------------------------------------|
B|-------13---------------------------13---------------13-13/15-------13--15--------------|
G|---------------------------------------14-14------------------12-12---12--12------------|
D|----------------------------------------------------------------------------------------|
A|----------------------------------------------------------------------------------------|
E|----------------------------------------------------------------------------------------|

E|-15-15---17-17/19-15-----12/13/12-----12/13/12-----12/13/12------12/13/12---------------------|
B|------13-------------------------13----------13------------13-----------13--------------------|
G|-------------------------------------14---------14------------14-----------14-12-------------|
D|---------------------------------------------------------------------------------15-14-12-----|
A|------------------------------------------------------------------------------------------15--|
E|----------------------------------------------------------------------------------------------|

C9
Mesmo sendo assim pobre e pecador
   F9
Deus me ama
C9
Mesmo sendo falho, mesmo sem merecer
    F9
Deus me ama
C9
Se eu estou forte, se eu estou de pe
   F9
Deus me ama
C9
Se eu estou fraco, se eu estou caido
         F9
Ele nao deixa de me amar
C9
Sem o seu amor, sem o seu perdao
         F9
O que seria de mim
C9
Deus me amou tanto que entregou seu filho
        F9
Pra morrer em meu lugar

C9
Deus me ama
        Bb
O seu amor e tao grande incondicional
C9
Deus me ama
           Bb                              C9
E ele esta sempre de bracos abertos pra mim

0 comentários

    mostrar mais comentários

    Conseguiu tocar?

    28tocaram1ainda não

    Grave um vídeo tocando Deus Me Ama e mande pra gente!

    00:00 / 00:00
    outros vídeos desta música
    repetirqualidadeautomática
    Outro vídeos desta música
      00:00 / 00:00
      automática
      Capítulos
      • Início
      • Acordes da música
      • Tocando a música
      • Ensinando Ritmo da música
      • Encerramento
      OK