Cifra Club

Deus Me Ama

Thalles Roberto

Tab de baixo: Principal
Feita a partir da Cifra Original do Cifra club 
com a participação de André Valadão. 

TOM: F

Tente sincronizar no tempo das batidas do bumbo e o 
abafamento usando os dedos por cima das cordas soltas.


Intro:  em C e Bb.  Entra junto com guitarra.

G|--------------------------------------------------------------
D|--------------------------------------------------------------
A|--/33-3--0h33-3--0h11-1--0h11-1--0/1h33-3--33-3--11-1--11-1---
E|--------------------------------------------------------------


Pré-refrão: C9 e F. Entra em Sem o seu amor.

G|---------------------------------------------------------
D|---------------------------------------------------------
A|-33-3--33-3-------------------1h3x3-3--33x3--------------
E|---------------11-1--11-1x1h3----------------11x1-11-1---


Refrão: C9 e F. entra em Deus me ama.

G|--------------------------------------------------------------
D|--------------------------------------------------------------
A|--/33-3--0h33-3--0h11-1--0h11-1--0/1h33-3--33-3--11-1--11-1---
E|--------------------------------------------------------------
exibições 14.188
Composição: Mariana Valadão Colaboração e revisão:
  • Pedro Moura

0 comentários

mostrar mais comentários

Conseguiu tocar?

3 tocaram 1 ainda não

Grave um vídeo tocando Deus Me Ama e mande pra gente!

00:00 / 00:00
outros vídeos desta música
repetir qualidade Automático
Outros vídeos desta música
00:00 / 00:00
Automático
OK