Cifra Club

Eu Sou Blindado

Thalles Roberto

Cifra: Principal
exibições 58.129
Tom: A
Em7
Eu sou blindado pelo Sangue do Cordeiro,
                   Bm7
E nem o inferno inteiro reunido,

Tem poder contra mim,

            Em7
Eu sou invisível na guerra,

Flecha na aljava de Deus,
                 Bm7
E o inimigo se levanta contra mim,

E eu venço tudo,

tudo, tudo, tudo, tudo...


Em7
Eu sou blindado pelo Sangue do Cordeiro,
                   Bm7
E nem o inferno inteiro reunido,

Tem poder contra mim,

            Em7
Eu sou invisível na guerra,

Flecha na aljava de Deus,
                 Bm7
E o inimigo se levanta contra mim,

E eu venço tudo,

tudo, tudo, tudo, tudo...

Em7                                Bm7
Só na vigilância, Soldado na posição,
Em7
Guerra é guerra Amigo,
                   Bm7
Joelho firme no chão,
Em7                               Bm7
O Inimigo foge não aguenta a pressão,
Em7                              Bm7
Por sete caminhos ele pode escolher.



TABS - Baixo
Recomendavel pra Baixo de 5 cordas, porem, aqui esta uma possivel tablatura pra baixo de 4 cordas.
Ritmo: Groove

Primeira parte.
(Eu sou blindado...)
G|---7-9h-x------------7-9h-x------------2-4h-x------------2-4h-x---5-7---------------------
D|---------x-----------------x-----------------x-----------------x---5-7--------------------
A|----------x--5-7------------x--5-7-0-2--------x--------2--------x---3-5-------------------
E|-0---------0-----3-0---------0-----------------x-3-4-5------------------------------------

(Só na vigilância...)

G|---7-9hp7-----------7-9hp7-----------2-4hp2-----------2-4hp2------------------------------
D|---------9p7--------------9p7---------------4p2--------------4p2--------------------------
A|-7---------------7-----------------2----------------2----------------2-2-3-3-3/12/0-------
E|-------------7-10-------------3-5---------------3-5--------------3-5---------------------
Segunda Parte
(Eu sou Blindado...)

G|---7-9h-x------------7-9h-x------------2-4h-x------------2-4h-x---5-7---------------------
D|---------x-----------------x-----------------x-----------------x---5-7--------------------
A|----------x--5-7------------x--5-7-0-2--------x--------2--------x---3-5-------------------
E|-0---------0-----3-0---------0-----------------x-3-4-5------------------------------------

(Só na vigilância...)

G|---7-9hp7-----------7-9hp7-----------2-4hp2-----------2-4hp2------------------------------
D|---------9p7--------------9p7---------------4p2--------------4p2--------------------------
A|-7---------------7-----------------2----------------2----------------2-2-3-3-4-4-5-5------
E|-------------7-10-------------3-5---------------3-5--------------3-5----------------------

Essa parte da tablatura deve ser executada apos chegar o segundo "Eu sou blindado" da segunda parte da musica

G|---7-9h-x------12~~14-------x--7-9h-x--------x--2-4h-x------------------------------------
D|---------12-14h--------------x-------x--------x-------x-----------------------------------
A|----------------------7-------x-------x----2---x-------x-0-2h-4-4-5-5---------------------
E|-0----------------------3-0------------4-5------------------------------------------------

(Só na vigilância...)

G|---7-9hp7-----------7-9hp7-----------2-4hp2-----------2-4hp2------------------------------
D|---------9p7--------------9p7---------------4p2--------------4p2--------------------------
A|-7---------------7-----------------2----------------2----------------2-2-3-3-4-4-5-5------
E|-------------7-10-------------3-5---------------3-5--------------3-5----------------------

Essa parte eh somente "O inimigo foge, nao aguenta a pressao."

G|---5/7-------------7-9hp7-----------2-4hp2-----------2-4hp2-------------------------------
D|--------------------------9p7---------------4p2--------------4p2--------------------------
A|-7---------------7-----------------2----------------2----------------2-2-3-3-4-4-5-5------
E|------5-7---7-10-------------3-5---------------3-5--------------3-5-----------------------

"Por 7 caminhos..."

G|---7-9hp7-----------7-9hp7-----------2-4hp2-----------2-4hp2------------------------------
D|---------9p7--------------9p7---------------4p2--------------4p2--------------------------
A|-7---------------7-----------------2----------------2----------------2-2-3-3-4-4-5-5------
E|-------------7-10-------------3-5---------------3-5--------------3-5----------------------
Acordes para:
    Composição: Thalles RobertoColaboração e revisão:

    0 comentários

      mostrar mais comentários

      Conseguiu tocar?

      5tocaram0ainda não

      Grave um vídeo tocando Eu Sou Blindado e mande pra gente!

      00:00 / 00:00
      outros vídeos desta música
      repetirqualidadeautomática
      Outro vídeos desta música
        00:00 / 00:00
        automática
        OK