Cifra Club

Same Blood

The Academy Is...

Cifra: Principal (violão e guitarra)
tom: G
|*******************|
|      Santi        |
|*******************|

Another Song from Santi, Pm me if theres a song you want me to tab out off the album. Have Fun =)

|***********|
| Guitar 1  |
|***********|

|Intro|          |0:00 - 0:09|
e|-----------------------------------|
b|-----------------------------------|
g|-----55-55-555-5555-55-55-555------|
d|-----------------------------------|
a|-----------------------------------|
D|-----------------------------------|

|Pre-chorus|     | 0:09 - 0:22 |
e|-----------------------------------|
b|-----------------------------------|
g|-----------------------------------|
d|-----------------------------------| | X 4 |
a|-----33333333-77777777-0000000-----|
D|-----33333333-77777777-0000000-----|

|Chorus|        | 0:50 - 1:04 |
e|-----------------------------------|
b|-----------------------------------|
g|-----------------------------------|
d|-----------------------------------| | X 4 |
a|-----33333333-77777777-0000000-----|
D|-----33333333-77777777-0000000-----|

|Verse|         | 1:04 - 1:15 |
e|---------------------------------------------|
b|----------------------------------------13---|
g|-14-14-14--12-12-12-----14-14-14---12-14--14-|
d|---------14--------14-----------14-----------|  | X 4 |
a|---------------------------------------------|
D|---------------------------------------------|

|Solo|          | 1:50 - 2:08 |
e|------------------------------------------------------------|
b|-----------------------------------------------------9b-----|
g|---10-9-7--10-9-7----------7----10-9-7--10-9-7--------------|
d|---------10--------10-9--10-----------10------10------------|   | X 2 |
a|------------------------------------------------------------|
D|------------------------------------------------------------|

|End On|
e|-------------|
b|-------------|
g|-------------|
d|-------------| 
a|-3~--3~--3~--|
D|-3~--3~--3~--|

|***********|
| Guitar 2  |
|***********|

Soon To Come
00:00 / 00:00
Outros vídeos desta música
Repetir
Outros vídeos desta música
Composição de The Academy Is... / William Beckett
592 exibições
    • ½ Tom
    • A
    • Bb
    • B
    • C
    • Db
    • D
    • Eb
    • E
    • F
    • F#
    • G
    • Ab
  • Adicionar à lista

    0 comentários

    Ver todos os comentários

    Conseguiu tocar?

    0 Tocaram 0 Ainda não

    Grave um vídeo tocando Same Blood e nos envie!

    00:00 / 00:00

    Cifra Club Pro

    Aproveite o Cifra Club com benefícios exclusivos e sem anúncios
    Cifra Club Pro
    Aproveite o Cifra Club com benefícios exclusivos e sem anúncios
    OK