Cifra Club

Sirius

The Alan Parsons Project

Cifra: Principal (violão e guitarra)
Selo Cifra Club: esta cifra foi revisada para atender aos critérios oficiais da nossa Equipe de Qualidade.
tom: G
Album: Eye in the sky

Intro: (arranged for guitar)
|-----7-------5---|
|-5-7---7-5-7---5-|
|-----------------|
|-----------------|
|-----------------|
|-----------------|repeat

verse:
|-Bm--------------G--------------Em--------|
|------------------------------------------|
|-4----------------------------------------|
|-4---------------5--------------2---------|
|-2---------------5--------------2---------|
|-----------------3--------------0---------|

Solo:
|------------------------------------------------------------------------19-|
|---------12-12/15---------------------17-17-19-20/17/19-19/20-19/20-15-----|
|-9-11-12---------19-19/16-16-16-18-19--------------------------------------|
|---------------------------------------------------------------------------|
|---------------------------------------------------------------------------|
|---------------------------------------------------------------------------|

Outtro: (Intro: Eye In The Sky)
|-Bm--------------G----------------|
|----------------------------------|
|-4444444444444444-----------------|
|-44444444444444445555555555555555-|
|-22222222222222225555555555555555-|
|-----------------3333333333333333-|
            (palm mute)
Outros vídeos desta música
    5.336 exibições
      • ½ Tom
      • A
      • Bb
      • B
      • C
      • Db
      • D
      • Eb
      • E
      • F
      • F#
      • G
      • Ab
    • Adicionar à lista

    Afinação da cifra

    Afinador online

      0 comentários

      Ver todos os comentários

      Entre para o Cifra Club PRO

      Tenha acesso a benefícios exclusivos no App e no Site

      • Chega de anúncios

      • Badges exclusivas

      • Mais recursos no app do Afinador

      • Atendimento Prioritário

      • Aumente seu limite de lista

      • Ajude a produzir mais conteúdo

      Cifra Club Pro

      Aproveite o Cifra Club com benefícios exclusivos e sem anúncios
      Cifra Club Pro
      Aproveite o Cifra Club com benefícios exclusivos e sem anúncios
      OK