Cifra Club

Ben Lee

The Ataris

Cifra: Principal (violão e guitarra)
Selo Cifra Club: esta cifra foi revisada para atender aos critérios oficiais da nossa Equipe de Qualidade.
tom: C
Intro:
e|-------------------------------------------------------|
B|-------------------------------------------------------|
G|-XXXX-7777--7777--4444--2222------------2222-4-6-------|
D|-XXXX-7777--7777--4444--2222--55555555--2222-4-6-(X2)--|
A|-XXXX-5555--4444--2222--0000--55555555--0000-2-4-------|
E|------------------------------33333333-----------------|

Verso:
e|-------------------------------------------------------|
B|-------------------------------------------------------|
G|-XXXX-7777--7777--4444--2222------------2222-4-6-------|
D|-XXXX-7777--7777--4444--2222--55555555--2222-4-6-(X2)--|
A|-XXXX-5555--4444--2222--0000--55555555--0000-2-4-------|
E|------------------------------33333333-----------------|
"I never met someone so jaded, your music's really over rated"


Refrão:
e|--------------------------------------------------|
B|--------------------------------------------------|
G|--------2222--4444--7777--------2222--4444--2222--|
D|--5555--2222--4444--7777--5555--2222--4444--2222--|
A|--5555--0000--2222--5555--5555--0000--2222--0000--|
E|--3333--------------------3333--------------------|
"a lot goes on but nothing happens..."

e|------------------------------------------|
B|------------------------------------------|
G|--------2222--4444--7777------------------|
D|--5555--2222--4444--7777------------------|
A|--5555--0000--2222--5555------------------|
E|--3333------------------------------------|
"to tell you that your 15 minutes of fame are almost up"

e|----------------------|
B|----------------------|
G|----------------------|
D|--5555--7777-7--------|
A|--5555--7777-7--------|
E|--3333--5555-5--------|
"yea one more thing, Ben Lee you suck"


Pré Verso:
e|----------------------|
B|----------------------|
G|--7777--7777----------|
D|--7777--7777----------|
A|--5555--5555----------|
E|----------------------|

-Verso
-Refrão
-Pré Verso
-Verso

Final:
e|----------------------|
B|----------------------|
G|---7------------------|
D|---7------------------|
A|---5------------------|
E|----------------------|
Outros vídeos desta música
    163 exibições
      • ½ Tom
      • A
      • Bb
      • B
      • C
      • Db
      • D
      • Eb
      • E
      • F
      • F#
      • G
      • Ab
    • Adicionar à lista

    Afinação da cifra

    Afinador online

      0 comentários

      Ver todos os comentários

      Entre para o Cifra Club PRO

      Tenha acesso a benefícios exclusivos no App e no Site

      • Chega de anúncios

      • Mais recursos no app do Afinador

      • Atendimento Prioritário

      • Aumente seu limite de lista

      • Ajude a produzir mais conteúdo

      Cifra Club Pro

      Aproveite o Cifra Club com benefícios exclusivos e sem anúncios
      Cifra Club Pro
      Aproveite o Cifra Club com benefícios exclusivos e sem anúncios
      OK