Cifra Club

Between You And Me

The Ataris

Cifra: Principal (violão e guitarra)
Selo Cifra Club: esta cifra foi revisada para atender aos critérios oficiais da nossa Equipe de Qualidade.
tom: A
Parte 1              Parte 2
e|-9--9--10--9-10-9-|-9--9--12--9-10-9-
B|--10-10--10-------|--10-10--10-------
G|------------------|------------------
D|------------------|------------------
A|------------------|------------------
E|------------------|------------------

outro
e|------------------------------------
B|------------------------------------
G|------------------------------------
D|---7---7--6-7-6-----9---------------
A|-5---0------------7---9-12--12-11-12
E|------------------------------------

Verso
e|---------------------------------------
B|---------------------------------------
G|---------------------------------------
D|-7---7-7-7-7--6---6-6-6-6--4---4-4-4-4-
A|-7---7-7-7-7--6---6-6-6-6--4---4-4-4-4-
E|-5---5-5-5-5--4---4-4-4-4--2---2-2-2-2-
Outros vídeos desta música
    2.209 exibições
      • ½ Tom
      • A
      • Bb
      • B
      • C
      • Db
      • D
      • Eb
      • E
      • F
      • F#
      • G
      • Ab
    • Adicionar à lista

    Afinação da cifra

    Afinador online

      0 comentários

      Ver todos os comentários

      Entre para o Cifra Club PRO

      Tenha acesso a benefícios exclusivos no App e no Site

      • Chega de anúncios

      • Badges exclusivas

      • Mais recursos no app do Afinador

      • Atendimento Prioritário

      • Aumente seu limite de lista

      • Ajude a produzir mais conteúdo

      Cifra Club Pro

      Aproveite o Cifra Club com benefícios exclusivos e sem anúncios
      Cifra Club Pro
      Aproveite o Cifra Club com benefícios exclusivos e sem anúncios
      Ops (: Contenido disponible sólo en portugués.
      OK