Cifra Club

Aprenda

Summer 79

The Ataris

Tab de baixo: Principal
Email: *

Intro:

G|-------------------------------------------------------------------------|
D|-------------------------------------------------------------------------|
A|------------------3*-------5*----2222------3333-5555---------------------|
E|--3*-----0*---------------------------0000-------------------------------|

1st Verse:
         
G|-------------------------------------------------------------------------|
D|-------------------------------------------------------------------------|
A|--------------------33333333-55555555-22222222----------33333333--555555*|
E|--33333333-00000000----------------------------00000000------------------|

Chorus:

G|-------------------------------------------------------------------------|
D|-------------------------------------------------------------------------|
A|----33-55--------33-5555----------33-55--------33-55---------------------|
E|-00-------3-2-00---------------00-------3-2-00---------------------------|

2nd Verse:

G|-------------------------------------------------------------------------|
D|-------------------------------------------------------------------------|
A|--------------------33333333-55555555-22222222----------33333333--555555-|
E|-----------00000000----------------------------00000000------------------|

Chorus:

G|-------------------------------------------------------------------------|
D|-------------------------------------------------------------------------|
A|----33-55--------33-5555----------33-55--------33-55---------------------|
E|-00-------3-2-00---------------00-------3-2-00---------------------------|

Bridge:

G|---------------------------------------------|
D|---------------------------------------------|
A|-3------5----------3--5----------------------|
E|---------3--0--------------------------------|

3rd Verse:

G|-----------------------------------------------------------------------|
D|-----------------------------------------------------------------------|
A|------------------3-------5------2222------3333-5555-------------------|
E|--3-----0-----------------------------0000-----------------------------|

G|-------------------------------------------------------------------------|
D|-------------------------------------------------------------------------|
A|--------------------33333333-55555555-22222222----------33333333--5555---|
E|--33333333-00000000----------------------------00000000------------------|

Final Chorus/Outro (Repeat Chorus 2x):

G|-------------------------------------------------------------------------|
D|-------------------------------------------------------------------------|
A|----33-55--------33-5555----------33-55--------33-55---------------------|
E|-00-------3-2-00---------------00-------3-2-00---------------------------|

G|-------------------------------------------------------------------------|
D|-------------------------------------------------------------------------|
A|----33-55--------33-5555----------33-55--------33-55*--------------------|
E|-00-------3-2-00---------------00-------3-2-00---------------------------|
Composição de Chris Roe
338 exibições

0 comentários

Ver todos os comentários

Conseguiu tocar?

0 Tocaram 0 Ainda não

Grave um vídeo tocando Summer 79 e nos envie!

00:00 / 00:00
Outros vídeos desta música
Repetir Qualidade Automático
Outros vídeos desta música
00:00 / 00:00
Automático

Cifra Club Pro

Aproveite o Cifra Club com benefícios exclusivos e sem anúncios
Cifra Club Pro
Aproveite o Cifra Club com benefícios exclusivos e sem anúncios
OK