Cifra Club

For You Blue

The Beatles

Cifra: Principal
exibições 39.785
Tom: A (com acordes na forma de E) Capotraste na 5ª casa
Intro: A7  D7  B7  E7

                     D7                    G7
|---------------------------------------------------------|
|-----------------------------------------------1--1-1--1-|
|-----------------------------------------------2--2-2--2-|
|------2p0-----------2--2-2--2-2--2----------0--0--0-0--0-|
|--------------0--2--0--0-0--0-0--0-----------------------|
|---0-------3------------------------0--1--2--------------|

               E7                A7
|----------------------------------0-----------0-----------0----------0-------|
|------------0--0-0--0-0--0--------0-----3-----3----3------0-----3----3-------|
|------------2--2-2--2-2--2----0h1---------------------0h1--------------------|
|---------1--1--1-1--1-1--1-----------0-----0-----0-----------------0---------|
|---0-1-2----2--2-2--2-2--2-----------2-----2-----2-----------2-----2----2----|
|-------------------------------------0-----0-----0-----------0-----0----0----|

A7                           D7         A7
Because you're sweet and lovely girl I love you,
  D7                                            A7
Because you're sweet and lovely girl it's true,
   E7                  D7
I love you more than ever girl I do.
   A7                 D7          A7
I want you in the morning girl I love you,
   D7                                 A7
I want you at the moment I feel blue,
     E7             D7                 A7
I'm living ev'ry moment girl for you

Solo Guitarra Slide: E7 D7 A7 E7 D7 A7 E7  D7 (E7)

A7                      D7     A7
I loved you from the moment I saw you,
     D7                                    A7
You looked at me that's all you had to do,
    E7                    D7
I feel it now I hope you feel it too.
A7                           D7         A7
Because you're sweet and lovely girl I love you,
  D7                                            A7
Because you're sweet and lovely girl it's true,
   E7                  D7
I love you more than ever girl I do.
   A7          D7    G7
I'm having the blues

Guitarra Slide:

afinação:
         E|--D
         B|--C
         G|--F#
         D|--D
         A|--D
         E|--D

Verse:

  D7               G7             D7
|-/12----12---12---/5----5----5---/12--12--12----12----/12---12---12-|
|-/12----12---12---/5----5----5---/12--12--12----12----/12---12---12-|
|-/12----12---12---/5----5----5---/12--12--12----12----/12---12---12-|
|-/12----12---12---/5----5----5---/12--12--12----12----/12---12---12-|
|--------------------------------------------------------------------|
|--------------------------------------------------------------------|

    G7                              D7
|-/5--5---5---5----/5--5---5---5--/12--12--12----12----/12---12--12-|
|-/5--5---5---5----/5--5---5---5--/12--12--12----12----/12---12--12-|
|-/5--5---5---5----/5--5---5---5--/12--12--12----12----/12---12--12-|
|-/5--5---5---5----/5--5---5---5--/12--12--12----12----/12---12--12-|
|-------------------------------------------------------------------|
|-------------------------------------------------------------------|

    A7                G7            D7                      A7
|-/7---7---7---7---/5--5---5--5---0---0------------------/7--7--7-|
|-/7---7---7---7---/5--5---5--5---0---0------------------/7--7--7-|
|-/7---7---7---7---/5--5---5--5---0---0------------------/7--7--7-|
|-/7---7---7---7---/5--5---5--5---0---0------------------/7--7--7-|
|-----------------------------------------------------0-----------|
|----------------------------------------0---4--5--6--------------|

Because you're sweet and lovely girl I love you
Because you're sweet and lovely girl it's true
I love you more than ever girl I do

I want you in the morning girl  I love you
I want you at the moment I feel blue
I'm living every moment girl for you

SOLO:

    D7                G7            D7
|-----12-------------5-------------12------------------12-----------|
|--------12------------5---------------12--------------12--12-------|
|-----------12------------5---/12----------12\----------------12----|
|-/12------------/5-----------/12--------------------------------12-|
|-----------------------------/12--------------0--------------12----|
|-------------------------------------------------/12---------------|

    G7                           D7
|-----5------------5------------12----------------------------------|
|-/5-----5-----------5------------------12--------------------------|
|-/5--------5----------5------------12-------12--12--12--12--12--12-|
|-/5-----------/5----------/12--------------------------------------|
|-/5----------------------------------------------------------------|
|-------------------------------------------------------------------|

    A7                  G7          D7                 A7
|--------7---------------5--------------------------/7--7--7--7-|
|-/7--7-----7--------/5----5------------------------/7--7--7--7-|
|-/7--7--------7-----/5-------5---0-----------------/7--7--7--7-|
|-/7--7--------------/5-----------------------------/7--7--7--7-|
|-----------------7------------------------------0--------------|
|------------------------------------0--4--5--6-----------------|

     D7              G7
|-/12---------------------------|
|-/12---12--12----/17---17---17-|
|-/12----12--12---/17---17---17-|
|-/12---12--12----/17---17---17-|
|-------------------------------|
|-------------------------------|

(spoken)

Walk
Walk cat walk
go Johnny go
same old tale of blues
Elmore James got nothin' on this baby


VERSE:

I loved you from the moment I saw you
You looked at me and that's all you had to do
I feel it now I hope you feel it too

Because you're sweet and lovely girl I love you
Because you're sweet and lovely girl it's true
I love you more than ever girl I do

Ending:

|------------------0/12-|
|------------------0/12-|
|------------------0/12-|
|------------------0/12-|
|-------------0---------|
|-0--4--5--6------------|

I'm having the blues
Acordes para:
    Composição: George HarrisonColaboração e revisão:
    • Pedro Arantes
    • joao brito

    0 comentários

      mostrar mais comentários

      Conseguiu tocar?

      9tocaram0ainda não

      Grave um vídeo tocando For You Blue e mande pra gente!

      00:00 / 00:00
      outros vídeos desta música
      repetirqualidadeautomática
      Outro vídeos desta música
        00:00 / 00:00
        automática
        OK