Cifra Club

Aprenda

Let It Be

The Beatles

Cifra: Solo (violão e guitarra)
tom: A
Parte 1 De 6

E|------------------------------------------|
B|------------------------------------------|
G|-5----5-----------------------------------|
D|-5h7--5-----------------------------------|
A|---------7\5--3~--------------------------|
E|------------------------------------------|

Parte 2 De 6

E|------------------------------------------|
B|------------------------------------------|
G|-------------------5-7b9----b9r7p5~~/7----|
D|----5-5---5~---5h7------------------------|
A|-/7-----7---------------------------------|
E|------------------------------------------|

Parte 3 De 6

E|----8------------5------------------------|
B|------------------------------------------|
G|-/9---9\7-5h7b9-----b9r7p5----------------|
D|------------------------------------------|
A|------------------------------------------|
E|------------------------------------------|

E|------------------------------------------|
B|------------------------------------------|
G|------------------------------------------|
D|-7p5-7p5----------------------------------|
A|---------7\5-3h5-3~-----------------------|
E|------------------------------------------|

Parte 4 De 6

E|------------------------------------------|
B|------------------8-------8-------8--10~--|
G|-----5-5----5-7/9------/9------/9---------|
D|-5/7------7-------------------------------|
A|------------------------------------------|
E|------------------------------------------|

Parte 5 De 6

E|-----8-10b12----b12r10p8h10-8~---15b17r15~|
B|8h10--------------------------------------|
G|------------------------------------------|
D|------------------------------------------|
A|------------------------------------------|
E|------------------------------------------|

Parte 6 De 6

E|------------------------------------------|
B|-b17r15p13-15p13-b17r15p13h15-13~---------|
G|------------------------------------------|
D|------------------------------------------|
A|------------------------------------------|
E|------------------------------------------|
Composição de John Lennon / Paul McCartney
Colaboração e revisão:
  • Thiago Almeida
926 exibições
  • Simplificar cifra
    • ½ Tom
    • A
    • Bb
    • B
    • C
    • Db
    • D
    • Eb
    • E
    • F
    • F#
    • G
    • Ab
  • Adicionar à lista

    0 comentários

    Ver todos os comentários
    00:00 / 00:00
    Outros vídeos desta música
    Repetir Qualidade Automático
    Outros vídeos desta música
    00:00 / 00:00
    Automático
    Capítulos
    • Tocando o Solo
    • Apresentação / Equipamentos
    • Tocando o Solo Lento
    • Encerramento

    Cifra Club Pro

    Aproveite o Cifra Club com benefícios exclusivos e sem anúncios
    Cifra Club Pro
    Aproveite o Cifra Club com benefícios exclusivos e sem anúncios
    OK