Cifra Club

Norwegian Wood

The Beatles

Cifra: Simplificada (violão e guitarra)
Selo Cifra Club: esta cifra foi revisada para atender aos critérios oficiais da nossa Equipe de Qualidade.
tom: E
[Intro] E  D  E  D

[Tab - Intro]

Parte 1 de 3
   E
E|-0---0-0-0-0--0-0-0-0---0-0-0-0-----------|
B|-0---0-0-0-0--2-0-0-0---0-0-0-0-----------|
G|-1---1-1-1-1--1-1-2-1---1-1-1-1-----------|
D|-2---2-2-2-2--2-2-2-2---2-2-2-2-----------|
A|-2---2-2-2-2--2-2-2-2---2-2-2-2-----------|
E|-0---0-0-0-0--0-0-0-0---0-0-0-0-----------|
   ↓   ↓ ↑ ↓ ↑  ↓ ↓ ↓ ↓   ↓ ↑ ↓ ↑

Parte 2 de 3
   E                   D      E
E|--------0---0-0-0-0--2-2----0---0-0-0-0---|
B|--------0---0-0-0-0--3-3----0---0-0-0-0---|
G|----2-1-1---1-1-1-1--2-2----1---1-1-1-1---|
D|--4-----2---2-2-2-2--0-0----2---2-2-2-2---|
A|--------2---2-2-2-2------4--2---2-2-2-2---|
E|--------0---0-0-0-0---------0---0-0-0-0---|
          ↓   ↓ ↑ ↓ ↓  ↓ ↓    ↓   ↓ ↑ ↓ ↑

Parte 3 de 3
   E
E|-0---0-0-0-0------------------------------|
B|-0---0-0-0-0------------------------------|
G|-1---1-1-1-1------------------------------|
D|-2---2-2-2-2------------------------------|
A|-2---2-2-2-2------------------------------|
E|-0---0-0-0-0------------------------------|
   ↓   ↓ ↑ ↓ ↑  

[Primeira parte]

E
I once had a girl

Or should I say
  D           E
She once had me

She showed me her room

Isn't it good?
 D         E
Norwegian wood

[Segunda parte]

Em                                         
She asked me to stay 
                            A
And she told me to sit anywhere
   Em                                         
So I looked around and I noticed 
                 F#m7  B7
There wasn't a chair

[Terceira parte]

E
I sat on a rug

Biding my time
  D           E
Drinking her wine

We talked until two

And then she said
D              E
It's time for bed

[Quarta parte]

Em                                      
She told me she worked in the morning 
                 A
And started to laugh        
Em                                         
I told her I didn't and crawled off to 
              F#m7  B7
Sleep in the bath

[Quinta parte]

E
And when I awoke

I was alone
  D             E
This bird has flown

So I lit a fire

Isn't it good?
 D         E
Norwegian wood

[Final] E  D

[Tab - Final]

Parte 1 de 2
   E
E|-0---0-0-0-0--0-0-0-0---0-0-0-0-----------|
B|-0---0-0-0-0--2-0-0-0---0-0-0-0-----------|
G|-1---1-1-1-1--1-1-2-1---1-1-1-1-----------|
D|-2---2-2-2-2--2-2-2-2---2-2-2-2-----------|
A|-2---2-2-2-2--2-2-2-2---2-2-2-2-----------|
E|-0---0-0-0-0--0-0-0-0---0-0-0-0-----------|
   ↓   ↓ ↑ ↓ ↑  ↓ ↓ ↓ ↓   ↓ ↑ ↓ ↑

Parte 2 de 2
   E                   D      E
E|--------0---0-0-0-0--2-2----0-------------|
B|--------0---0-0-0-0--3-3----0-------------|
G|----2-1-1---1-1-1-1--2-2----1-------------|
D|--4-----2---2-2-2-2--0-0----2-------------|
A|--------2---2-2-2-2------4--2-------------|
E|--------0---0-0-0-0---------0-------------|
          ↓   ↓ ↑ ↓ ↓  ↓ ↓    ↓
Outros vídeos desta música
    84.904 exibições
      • ½ Tom
      • A
      • Bb
      • B
      • C
      • Db
      • D
      • Eb
      • E
      • F
      • F#
      • G
      • Ab
    • Adicionar à lista

    Afinação da cifra

    Afinador online

      0 comentários

      Ver todos os comentários

      Entre para o Cifra Club PRO

      Tenha acesso a benefícios exclusivos no App e no Site

      • Chega de anúncios

      • Badges exclusivas

      • Mais recursos no app do Afinador

      • Atendimento Prioritário

      • Aumente seu limite de lista

      • Ajude a produzir mais conteúdo

      Capítulos
      • Apresentaçāo
      • Tocando a Música
      • Explicando Dinâmica da Música
      • Acordes da Música
      • Ensinando a Introdução
      • Ensinando o Ritmo Padrão
      • Ensinando a Primeira Parte
      • Ensinando a Segunda Parte
      • Explicando Dinâmica da Música
      • Ensinando o Final
      • Encerramento

      Cifra Club Pro

      Aproveite o Cifra Club com benefícios exclusivos e sem anúncios
      Cifra Club Pro
      Aproveite o Cifra Club com benefícios exclusivos e sem anúncios
      Ops (: Contenido disponible sólo en portugués.
      OK