Cifra Club

Norwegian Wood

The Beatles

Cifra: Principal (violão e guitarra)
Selo Cifra Club: esta cifra foi revisada para atender aos critérios oficiais da nossa Equipe de Qualidade.
tom: E (forma dos acordes no tom de D) Capotraste na 2ª casa
[Intro]

[Tab - Intro]

Parte 1 de 3
   D   
E|-2--2-2-2-2---------------2-2-2-2---------|
B|-3--3-3-3-3-3----3--3--3--3-3-3-3---------|
G|-2--2-2-2-2-2h4--2--0--0--0-0-0-0---------|
D|-0---------------------4------------------|
A|------------------------------------------|
E|------------------------------------------|
   ↓  ↓ ↑ ↓ ↑ ↓    ↓  ↓  ↓  ↓ ↑ ↓ ↑

Parte 2 de 3
  
E|----------2--2-2--------0--0--------------|
B|-3--3--3--3--3-3-----3--3--3--------------|
G|-0--0--0--2--2-2-----0--0--0--------------|
D|-2--0--4--0-------0--0--0--0--------------|
A|------------------0--3-----2--------------|
E|------------------------------------------|
   ↓  ↓  ↓  ↓  ↓ ↑  ↓  ↓  ↓  ↓

Parte 3 de 3
  
E|-0h2--2-2-2-2-2--2-2-2-2------------------|
B|-3----3-3-3-3-3--3-3-3-3------------------|
G|-0h2--2-2-2-2-2--2-2-2-2------------------|
D|-0------------0---------------------------|
A|------------------------------------------|
E|------------------------------------------|
   ↓    ↓ ↑ ↓ ↑ ↓  ↓ ↑ ↓ ↑

[Primeira parte]

D
I once had a girl

Or should I say

She once had me

She showed me her room

Isn't it good?

Norwegian wood

[Segunda parte]

Dm                                         
She asked me to stay 
                            G
And she told me to sit anywhere
   Dm                                         
So I looked around and I noticed 
                 Em7   A7
There wasn't a chair 

[Terceira parte]

D
I sat on a rug

Biding my time

Drinking her wine

We talked until two

And then she said

It's time for bed

[Quarta parte]

Dm                                   
She told me she worked in the morning 
                G
And started to laugh
   Dm                                         
I told her I didn't and crawled off 
                 Em7   A7
To sleep in the bath

[Quinta parte]

D
And when I awoke

I was alone

This bird has flown

So I lit a fire

Isn't it good?

Norwegian wood

[Final] D

[Tab - Final]

Parte 1 de 2
   D   
E|-2--2-2-2-2---------------2-2-2-2---------|
B|-3--3-3-3-3-3----3--3--3--3-3-3-3---------|
G|-2--2-2-2-2-2h4--2--0--0--0-0-0-0---------|
D|-0---------------------4------------------|
A|------------------------------------------|
E|------------------------------------------|
   ↓  ↓ ↑ ↓ ↑ ↓    ↓  ↓  ↓  ↓ ↑ ↓ ↑

Parte 2 de 2
  
E|----------2--2-2--------0--0--2-----------|
B|-3--3--3--3--3-3-----3--3--3--3-----------|
G|-0--0--0--2--2-2-----0--0--0--2-----------|
D|-2--0--4--0-------0--0--0--0--0-----------|
A|------------------0--3-----2--------------|
E|------------------------------------------|
   ↓  ↓  ↓  ↓  ↓ ↑  ↓  ↓  ↓  ↓  ↓
Outros vídeos desta música
    136.763 exibições
    • Simplificar cifra
      • ½ Tom
      • A
      • Bb
      • B
      • C
      • Db
      • D
      • Eb
      • E
      • F
      • F#
      • G
      • Ab
    • Adicionar à lista

    Afinação da cifra

    Afinador online

      0 comentários

      Ver todos os comentários

      Entre para o Cifra Club PRO

      Tenha acesso a benefícios exclusivos no App e no Site

      • Chega de anúncios

      • Badges exclusivas

      • Mais recursos no app do Afinador

      • Atendimento Prioritário

      • Aumente seu limite de lista

      • Ajude a produzir mais conteúdo

      Capítulos
      • Apresentaçāo
      • Tocando a Música
      • Explicando Dinâmica da Música
      • Acordes da Música
      • Explicando o Tempo da Música
      • Ensinando a Introdução
      • Ensinando o Ritmo Padrão
      • Ensinando Segunda Parte
      • Ensinando o Solo Final
      • Encerramento

      Cifra Club Pro

      Aproveite o Cifra Club com benefícios exclusivos e sem anúncios
      Cifra Club Pro
      Aproveite o Cifra Club com benefícios exclusivos e sem anúncios
      Ops (: Contenido disponible sólo en portugués.
      OK