Cifra Club

Oh! Darling

The Beatles

Cifra: Principal (violão e guitarra)
tom: A
[Primeira Parte]

Parte 1 de 4
   A                  E    
E|----0------------------0------0-----------|
B|----2------2-----------0------0-----------|
G|-2--2------2--------1--1------1-----------|
D|-2--2--2/4-2----0-1-2--2------2-----------|
A|-0---------0--4-----2-----2/4-2-----2-----|
E|--------------------0---------0--/4---0---|

Parte 2 de 4
   F#m                D               
E|---2-----2--2----------2------2-----------|
B|---2-----2--2-------3--3------3-----------|
G|-2-2-----2--2-------2--2------2------2----|
D|-4-4-----4--4-------0--0--2/4-0--2/4---4--|
A|-4----0--4-----0--4-----------------------|
E|-2----------------------------------------|

Parte 3 de 4
   Bm             Em7                 
E|-2---2--2-2-2---0---0--0-0-0--------------|
B|-3---3--3-3-3---0---0--0-0-0--------------|
G|-4---4--4-4-4---1---1--1-1-1--------------|
D|-4---4--4-4-4---0---0--0-0-0--------------|
A|-2---2--2-2-2---2---2--2-2-2--------------|
E|----------------0---0--0-0-0--------------|
   ↓   ↑  ↓ ↓ ↓   ↓   ↑  ↓ ↓ ↓
                                           
Parte 3 de 4
   Bm             Em7                 
E|-2---2--2-2-2---0---0--0-0-0--------------|
B|-3---3--3-3-3---0---0--0-0-0--------------|
G|-4---4--4-4-4---1---1--1-1-1--------------|
D|-4---4--4-4-4---0---0--0-0-0--------------|
A|-2---2--2-2-2---2---2--2-2-2--------------|
E|----------------0---0--0-0-0--------------|
   ↓   ↑  ↓ ↓ ↓   ↓   ↑  ↓ ↓ ↓

Parte 4 de 4
   A            D            A            E
E|--------------2-2-2-2-------------------0-|
B|-2-2-2-2------3-3-3-3------2-2-2-2------0-|
G|-2-2-2-2------2-2-2-2------2-2-2-2------1-|
D|-2-2-2-2------0-0-0-0------2-2-2-2------2-|
A|-0-0-0-0--2-4---------4-2--0-0-0-0------2-|
E|-----------------------------------4-2--0-|
   ↓ ↓ ↓ ↓      ↓ ↓ ↓ ↓        ↓ ↓ ↓ ↓      ↓

E5+      A                  E
    Oh, Darling, Please, believe me
F#m                   D
I'll never do you no harm
   Bm                   E7 
Believe me when I tell you
Bm          E7        A    D  A  E
I'll never do you no harm

[Segunda Parte]

Parte 1 de 5
   A                  E    
E|----0------------------0------0-----------|
B|----2------2-----------0------0-----------|
G|-2--2------2--------1--1------1-----------|
D|-2--2--2/4-2----0-1-2--2------2-----------|
A|-0---------0--4-----2-----2/4-2-----2-----|
E|--------------------0---------0--/4---0---|

Parte 2 de 5
   F#m                D               
E|---2-----2--2----------2------2-----------|
B|---2-----2--2-------3--3------3-----------|
G|-2-2-----2--2-------2--2------2------2----|
D|-4-4-----4--4-------0--0--2/4-0--2/4---4--|
A|-4----0--4-----0--4-----------------------|
E|-2----------------------------------------|

Parte 3 de 5
   Bm             Em7                 
E|-2---2--2-2-2---0---0--0-0-0--------------|
B|-3---3--3-3-3---0---0--0-0-0--------------|
G|-4---4--4-4-4---1---1--1-1-1--------------|
D|-4---4--4-4-4---0---0--0-0-0--------------|
A|-2---2--2-2-2---2---2--2-2-2--------------|
E|----------------0---0--0-0-0--------------|
   ↓   ↑  ↓ ↓ ↓   ↓   ↑  ↓ ↓ ↓
                                           
Parte 3 de 5
   Bm             Em7                 
E|-2---2--2-2-2---0---0--0-0-0--------------|
B|-3---3--3-3-3---0---0--0-0-0--------------|
G|-4---4--4-4-4---1---1--1-1-1--------------|
D|-4---4--4-4-4---0---0--0-0-0--------------|
A|-2---2--2-2-2---2---2--2-2-2--------------|
E|----------------0---0--0-0-0--------------|
   ↓   ↑  ↓ ↓ ↓   ↓   ↑  ↓ ↓ ↓

Parte 4 de 5
   A            D            A             
E|--------------2-2-2-2---------------------|
B|-2-2-2-2------3-3-3-3------2-2-2-2-2-2----|
G|-2-2-2-2------2-2-2-2------2-2-2-2-2-2----|
D|-2-2-2-2------0-0-0-0------2-2-2-2-2-2----|
A|-0-0-0-0--2-4---------4-2--0-0-0-0-0-0----|
E|------------------------------------------|
   ↓ ↓ ↓ ↓      ↓ ↓ ↓ ↓      ↓ ↓ ↓ ↓ ↓ ↓   

Parte 5 de 5
   A7                                      
E|-3-3-3-3-3-3------------------------------|
B|-2-2-2-2-2-2------------------------------|
G|-0-0-0-0-0-0------------------------------|
D|-2-2-2-2-2-2------------------------------|
A|-0-0-0-0-0-0------------------------------|
E|------------------------------------------|
   ↓ ↓ ↓ ↓ ↓ ↓                             

     A               E
Oh, Darling, If you leave me
F#m                  D
I'll never make it alone
    Bm                 E7
Believe me when I beg you
 Bm         E7        A   D  A  A7
Don't ever leave me alone

[Refrão]

Parte 1 de 5                                         
E|----10-----------------10----------------------------|
B|-------10----10-----------10----10-------------------|
G|----------11----11-----------11----11----------------|
D|-12-----------------12-------------------------------|
A|-----------------------------------------------------|
E|-----------------------------------------------------|

Parte 2 de 5
E|----13-----------------13----------------------------|
B|-------13----13-----------13----13-------------------|
G|----------14----14-----------14----14----------------|
D|-15-----------------15-------------------------------|
A|-----------------------------------------------------|
E|-----------------------------------------------------|

Parte 3 de 5
E|---5------------5------------5-------------5---------|
B|-----5---5--------5---5--------5---5---------5---5---|
G|-------6---6--------6---6--------6---6---------6---6-|
D|-7------------7------------7-------------7-----------|
A|-----------------------------------------------------|
E|-----------------------------------------------------|

Parte 4 de 5
E|---7------------7------------7-------------7---------|
B|-----7---7--------7---7--------7---7---------7---7---|
G|-------8---8--------8---8--------8---8---------8---8-|
D|-9------------9------------9-------------9-----------|
A|-----------------------------------------------------|
E|-----------------------------------------------------|

Parte 5 de 5
E|----12-----------------13----------------------------|
B|-------12----12-----------13----13-------------------|
G|----------13----13-----------14----14----------------|
D|-14-----------------15-----------------14\-----------|
A|-----------------------------------------------------|
E|-----------------------------------------------------|

          D
When you told me
            F 
You didn't need me anymore
            A
Well, you know, I nearly
                 A7
Broke down and cried

          B7
When you told me

You didn't need me anymore
            E 
Well, you know, I nearly
  F             E    E5+
Broke down and died

[Terceira Parte]

     A               E
Oh, Darling, If you leave me
F#m                  D
I'll never make it alone
   Bm                   E7
Believe me when I tell you
Bm          E7        A   D  
I'll never do you no harm
A                     A7
  Believe me, darling

[Refrão]

          D
When you told me
            F 
You didn't need me anymore
            A
Well, you know, I nearly
                 A7
Broke down and cried

          B7
When you told me

You didn't need me anymore
            E 
Well, you know, I nearly
  F             E    E5+
Broke down and died

[Quarta Parte]

Parte 1 de 4
   A                  E    
E|----0------------------0------0-----------|
B|----2------2-----------0------0-----------|
G|-2--2------2--------1--1------1-----------|
D|-2--2--2/4-2----0-1-2--2------2-----------|
A|-0---------0--4-----2-----2/4-2-----2-----|
E|--------------------0---------0--/4---0---|

Parte 2 de 4
   F#m                D               
E|---2-----2--2----------2------2-----------|
B|---2-----2--2-------3--3------3-----------|
G|-2-2-----2--2-------2--2------2------2----|
D|-4-4-----4--4-------0--0--2/4-0--2/4---4--|
A|-4----0--4-----0--4-----------------------|
E|-2----------------------------------------|

Parte 3 de 4
   Bm             Em7                 
E|-2---2--2-2-2---0---0--0-0-0--------------|
B|-3---3--3-3-3---0---0--0-0-0--------------|
G|-4---4--4-4-4---1---1--1-1-1--------------|
D|-4---4--4-4-4---0---0--0-0-0--------------|
A|-2---2--2-2-2---2---2--2-2-2--------------|
E|----------------0---0--0-0-0--------------|
   ↓   ↑  ↓ ↓ ↓   ↓   ↑  ↓ ↓ ↓
                                           
Parte 3 de 4
   Bm             Em7                 
E|-2---2--2-2-2---0---0--0-0-0--------------|
B|-3---3--3-3-3---0---0--0-0-0--------------|
G|-4---4--4-4-4---1---1--1-1-1--------------|
D|-4---4--4-4-4---0---0--0-0-0--------------|
A|-2---2--2-2-2---2---2--2-2-2--------------|
E|----------------0---0--0-0-0--------------|
   ↓   ↑  ↓ ↓ ↓   ↓   ↑  ↓ ↓ ↓

Parte 4 de 4
   A            D            A  A#7  A7    
E|--------------2-2-2-2----------6---5--5---|
B|-2-2-2-2------3-3-3-3------2---9---8--8---|
G|-2-2-2-2------2-2-2-2------2---7---6--6---|
D|-2-2-2-2------0-0-0-0------2---6---5--5---|
A|-0-0-0-0--2-4---------4-2--0---8---7--7---|
E|-------------------------------6---5--5---|
   ↓ ↓ ↓ ↓      ↓ ↓ ↓ ↓      ↓   ↓   ↓  ↑  

     A                 E
Oh, Darling, Please believe me
F#m                 E
I'll never let you down

Oh, believe me, darling
   Bm              E7
Believe me when I tell you
Bm          E7        A  D  A  A#7  A7
I'll never do you no harm
Composição de John Lennon / Paul McCartney
Colaboração e revisão:
  • Getúlio Vasconcelos
10.741 exibições
  • Simplificar cifra
    • ½ Tom
    • A
    • Bb
    • B
    • C
    • Db
    • D
    • Eb
    • E
    • F
    • F#
    • G
    • Ab
  • Adicionar à lista

    0 comentários

    Ver todos os comentários
    00:00 / 00:00
    Outros vídeos desta música
    Repetir Qualidade Automático
    Outros vídeos desta música
    00:00 / 00:00
    Automático
    Capítulos
    • Tocando a Música
    • Apresentação / Equipamentos
    • Acordes
    • Tocando Primeira Parte Lento
    • Tocando lento Primeira Parte
    • Ensinando Primeira Parte - Parte 1
    • Ensinando Primeira Parte - Parte 2
    • Ensinando Primeira Parte - Parte 3
    • Ensinando Primeira Parte - Parte 4
    • Acordes da Segunda Parte
    • Tocando Segunda Parte
    • Tocando Segunda Parte Lento
    • Ensinando Segunda Parte
    • Ensinando Segunda Parte - Parte 2
    • Tocando Refrão
    • Ensinando Ritmo do Refrão
    • Acordes da Terceira Parte
    • Tocando Terceira Parte / Quarta Parte
    • Ensinando Quarta Parte
    • Tocando Solo do Refrão
    • Ensinando Solo - Parte 1
    • Ensinando Solo - Parte 2
    • Ensinando Solo - Parte 3
    • Ensinando Solo - Parte 4
    • Ensinando Solo - Parte 5
    • Encerramento

    Cifra Club Pro

    Aproveite o Cifra Club com benefícios exclusivos e sem anúncios
    Cifra Club Pro
    Aproveite o Cifra Club com benefícios exclusivos e sem anúncios
    OK