Enviar cifraEntrar

Twist And Shout

The Beatles

Cifra: Principal
exibições 290.757
Tom: D
Intro: D G (con cejillo) A (con cejillo) A7 (con cejilla)


E|--------------------------------------------------|(DURANTE TODA A MÚSICA)
B|--------------------------------------------------|
G|--------------------------------------------------|
D|---------7----------------------------------------|
A|-----4-5-5-2-2-4-4-4-4-4-4------------------------|
E|-5--7------3-3-5-5-5-5-5-5------------------------|


                   D          G            A
Well shake it oh baby now, (shake it oh baby)
          D        G          A
Twist and shout. (Twist and shout)
                           D           G        A
C'mon, c'mon, c'mon, c'mon baby now, (come on baby)
                          D    G          A
Come on and work it on   out (Work it on out)

            D    G          A
Work it on out (Work it on out)
                     D       G       A
You know you look so good. (Look so good)
                     D          G       A
You know you got me goin' now, (Got me goin')
                      D              G         A
Just like I knew you would. (Like I knew you would)

                 D           G         A
Well shake it oh baby now, (shake it oh baby)
          D        G          A
Twist and shout. (Twist and shout)
                           D           G        A
C'mon, c'mon, c'mon, c'mon baby now, (come on baby)
                       D      G           A
Come on and work it on out. (Work it on out)

                               D      G            A
You know, you twist oh little girl, (twist little girl)
                       D       G        A
You know, you twist so fine, (Twist so fine)
                            D            G               A
Come on and twist a little closer now, (twist a little closer)
                            D             G            A
And let me know that you're mine. (Let me know you're mine, ooh.)

( D  G  A  )4X

Solo:                     Solo Jhon al mismo tiempo

E|------------------------------------------------------|
B|-------3----------------------------------------------|
G|-----4-4-6-6-4-2-------2-2-4-6-5-5-4-2-2--------------|4X
D|-4-4-5---7-7-5-4-4-----3-3-5-7-6-6-5-4-3--------------|
A|-5-5-------------5------------------------------------|
E|------------------------------------------------------|


A           A              A            A        A
Ahhhhhhhhh Ahhhhhhhhhhhh Ahhhhhhhhhh Ahhhhhhh Ahhhhhh
                   D         G            A
Well shake it oh baby now, (shake it oh baby)
          D        G          A
Twist and shout. (Twist and shout)
                           D           G        A
C'mon, c'mon, c'mon, c'mon baby now, (come on baby)
                          D    G          A
Come on and work it on   out (Work it on out)

                               D      G            A
You know, you twist oh little girl, (twist little girl)
                       D       G        A
You know, you twist so fine, (Twist so fine)
                            D            G               A
Come on and twist a little closer now, (twist a little closer)
                            D             G            A
And let me know that you're mine. (Let me know you're mine, ooh.)

                                    D          G             A
Well, shake it, shake it, shake it, baby now. (shake it up, baby)
                                    D          G             A
Well, shake it, shake it, shake it, baby now. (shake it up, baby)
                                    D          G             A
Well, shake it, shake it, shake it, baby now. (shake it up, baby)

A                                         D
Ahhhhhhhhh Ahhhhhhhhhhhh Ahhhhhhhhhh Ahhhhhhh

FINAL


E|------------------------------------------------------| D9
B|------------------------------------------------------|
G|------------------------------------------------------|
D|------------------------------------------------------|
A|-4-5-6-7-8-9------------------------------------------|
E|-5-6-7-8-9-10-----------------------------------------|
  • 1
  • 2
  • 3
  • 4
  • 5
  • 6
  • 7
  • 8
  • 9
  • 10
  • 11
  • 12
    Acordes para:

      0 comentários

        mostrar mais comentários

        Conseguiu tocar?

        138tocaram2ainda não

        Grave um vídeo tocando Twist And Shout e mande pra gente!

        00:00 / 00:00
        outros vídeos desta música
        repetirqualidadeautomática
        • automática
        Outro vídeos desta música
          00:00 / 00:00
          automática
          • automática
          2 versões de Tab de baixoexibiçõescontribuições
          1 versão de Tab de gaitaexibiçõescontribuições
          1 versão de Guitar Proformatodownloadscontribuição
          1 versão de Partiturasformatodownloadscontribuição
          fecharplay/pause subir/descer velocidade
            acordes
            fechar
            OK
            Feedback