Cifra Club

Aprenda

Oh! Darling

The Beatles

Cifra: Versão 2 (violão e guitarra)
Tom: C
E|------ ------ ------ ------|------ ------ 8----- ------|
B|---------------------------|--------------9------------|
G|---------------------------|--------------9------------|
D|---------------------------|-------------10------------|
A|---------------------------|---------------------------|
E|---------------------------|--------------0------------|
                                                   Oh!

E|------ 9--\-- ------ 9-----|------ 7-\--- ------ 7-----|
B|-------10-\----------10----|-------9-\-----------9-----|
G|-------9--\----------9-----|-------9-\-----------9-----|
D|---------------------------|---------------------------|
A|---------------------------|---------------------------|
E|---------------------------|---------------------------|
  Darling,             please
                           believe me

E|------ 5----- ------ 5-----|------ 5----- ------ 5-\---|
B|-------7-------------7-----|-------7-------------7-\---|
G|-------6-------------6-----|-------7-------------7-\---|
D|---------------------------|---------------------------|
A|---------------------------|---------------------------|
E|---------------------------|---------------------------|
  I'll   never  do  you    no harm                     Believe
                              Aaaaaaaaaaaaaaaaaaaaaaaaahh

E|------ 7----- ------ 7-----|------ 7----- ------ 7-----|
B|-------7-------------9-----|-------7-------------9-----|
G|-------7-------------9-----|-------7-------------9-----|
D|---------------------------|---------------------------|
A|---------------------------|---------------------------|
E|---------------------------|---------------------------|
      me when     you         I'll   never  do  you    no
           I tell
  Aaaaaaaaaaaaaaaahhhh        Aaaaaaaaaaaaaaaaaahhhh

E|------ 5-\--- ------ 5-\---|------ 5-\--- ------ ------|
B|-------5-\-----------7-\---|-------5-\-----------------|
G|-------6-\-----------7-\---|-------6-\-----------------|
D|---------------------------|---------------------------|
A|---------------------------|---------------------------|
E|---------------------------|---------------------------|
  harm                                                 Oh!

E|------ 5----- ------ 5-----|------ 7----- ------ 7-\---|
B|-------5-------------5-----|-------9-------------9-\---|
G|-------6-------------6-----|-------9-------------9-\---|
D|---------------------------|---------------------------|
A|---------------------------|---------------------------|
E|---------------------------|---------------------------|
  Darling,             if you leave me
  Oooooooooooooooooooooohhhhhhoooooooooooooooooooooooohhhh


E|------ 5----- ------ 5-----|------ 5-\--- ------ 5-\---|
B|-------7-------------7-----|-------7-\-----------7-\---|
G|-------6-------------6-----|-------7-\-----------7-\---|
D|---------------------------|---------------------------|
A|---------------------------|---------------------------|
E|---------------------------|---------------------------|
  I'll   never  make it    alone                       Believe
  Ooooooooooooooooooooooohhhhhaaaaaaaaaaaaaaaaaaaaaaahhhh

E|------ 7----- ------ 7-\---|------ 7-\--- ------ 7-----|
B|-------7-------------9-\---|-------7-\-----------9-----|
G|-------7-------------9-\---|-------7-\-----------9-----|
D|---------------------------|---------------------------|
A|---------------------------|---------------------------|
E|---------------------------|---------------------------|
      me when    you ooooooh  Don't  ever   leave me   alone
           I beg
  Aaaaaaaaaaaaaaaaahhhh       Aaaaaaaaaaaaaaaaahhhh

E|------ 5-\--- ------ 5-\---|------ 5-\--- ------ 5-\---|
B|-------5-\-----------7-\---|-------5-\-----------5-\---|
G|-------6-\-----------7-\---|-------6-\-----------6-\---|
D|---------------------------|---------------------------|
A|---------------------------|---------------------------|
E|---------------------------|---------------------------|
                                                     When
                                                       you

E|--10-- ------ --10-- ------|--13-- ------ --13-- ------|
B|----10---10-------10---10--|----13-101310-----13-101310|
G|-------11--11--------11--11|10------------10-----------|
D|--------------12-----------|---------------------------|
A|---------------------------|---------------------------|
E|---------------------------|---------------------------|
  told me             you didn't     anymore         Oh,
                              need me                 well,
                                                        you

E|------ ------ ------ ------|------ ------ ------ ------|
B|--10------------10---------|--10------------10---------|
G|----9----9--------9----9---|----9----9--------9----9---|
D|-------11--11--------11--11|-------11--11--------11--11|
A|12------------12-----------|12------------12-----------|
E|---------------------------|---------------------------|
  know I nearly broke down and cried                 When
                                                       you

E|------ ------ ------ ------|------ ------ ------ ------|
B|--12------------12---------|--12------------12---------|
G|----11---11-------11---11--|----11---11-------11---11--|
D|-------13--13--------13--13|-------13--13--------13--13|
A|14------------14-----------|14------------14-----------|
E|---------------------------|---------------------------|
  told me              you didn't    anymore         Oh.
                              need me                 well,
                                                     you

E|--12-- ------ --13-- ------|------ ------ ------0-------|
B|----12---12-------13---13--|--------------------1-------|
G|-------13--13--------14--14|--------------------1-------|
D|14------------15-----------|14-\----------------2-------|
A|---------------------------|----------------------------|
E|---------------------------|----------------------------|
  know I nearly broke down and died                    Oh!

E|------ 9----- ------ 9--\--|------ 7----- ------ 7-\---|
B|-------10------------10-\--|-------9-------------9-\---|
G|-------9-------------9--\--|-------9-------------9-\---|
D|---------------------------|---------------------------|
A|---------------------------|---------------------------|
E|---------------------------|---------------------------|
  Darling,             if you leave me

E|------ 5----- ------ 5-\---|------ 5-\--- ------ 5-----|
B|-------7-------------7-\---|-------7-\-----------7-----|
G|-------6-------------6-\---|-------7-\-----------7-----|
D|---------------------------|---------------------------|
A|---------------------------|---------------------------|
E|---------------------------|---------------------------|
  I'll   never  make it    alone                       Believe
  Ooooooooooooooooooooooohhhhhaaaaaaaaaaaaaaaaaaaahhhh

E|------ 7----- ------ 7-----|------ 7----- ------ 7-----|
B|-------7-------------9-----|-------7-------------9-----|
G|-------7-------------9-----|-------7-------------9-----|
D|---------------------------|---------------------------|
A|---------------------------|---------------------------|
E|---------------------------|---------------------------|
      me when     you         I'll   never  do  you    no
           I tell
  Aaaaaaaaaaaaaaaaahhh        Aaaaaaaaaaaaaaaaahhh

E|------ 5-\--- ------ 5-\---|------ 5-\--- ------ 5-\---|
B|-------5-\-----------7-\---|-------5-\-----------5-\---|
G|-------6-\-----------7-\---|-------6-\-----------6-\---|
D|---------------------------|---------------------------|
A|---------------------------|---------------------------|
E|---------------------------|---------------------------|
  harm                                               When
                                                       you

E|--10-- ------ --10-- ------|--13-- ------ --13-- ------|
B|----10---10-------10---10--|----13-101310-----13-101310|
G|-------11--11--------11--11|10------------10-----------|
D|--------------12-----------|---------------------------|
A|---------------------------|---------------------------|
E|---------------------------|---------------------------|
  told me oooooh       you didn't     anymore         Oh,
                              need me                 well,
                                                        you

E|------ ------ ------ ------|------ ------ ------ ------|
B|--10------------10---------|--10------------10---------|
G|----9----9--------9----9---|----9----9--------9----9---|
D|-------11--11--------11--11|-------11--11--------11--11|
A|12------------12-----------|12------------12-----------|
E|---------------------------|---------------------------|
  know I nearly broke down and cried              Oh,when
                                                       you

E|------ ------ ------ ------|------ ------ ------ ------|
B|--12------------12---------|--12------------12---------|
G|----11---11-------11---11--|----11---11-------11---11--|
D|-------13--13--------13--13|-------13--13--------13--13|
A|14------------14-----------|14------------14-----------|
E|---------------------------|---------------------------|
  told me              you didn't    anymore         Oh,
                              need me                 well,
                                                      you

E|--12-- ------ --13-- ------|------ ------ ------0-------|
B|----12---12-------13---13--|--------------------1-------|
G|-------13--13--------14--14|--------------------1-------|
D|14------------15-----------|14-\----------------2-------|
A|---------------------------|----------------------------|
E|---------------------------|----------------------------|
  know I nearly broke down and died                    Oh!

E|------ 9----- ------ 9--\--|------ 7----- ------ 7-\---|
B|-------10------------10-\--|-------9-------------9-\---|
G|-------9-------------9--\--|-------9-------------9-\---|
D|---------------------------|---------------------------|
A|---------------------------|---------------------------|
E|---------------------------|---------------------------|
  Darling,             please
                           believe me
  Ooooooooooooooooooooooohhhhhooooooooooooooooooooooohhhh

E|------ 5----- ------ 5-----|------ 5-\--- ------ 5-\---|
B|-------7-------------7-----|-------7-\-----------7-\---|
G|-------6-------------6-----|-------7-\-----------7-\---|
D|---------------------------|---------------------------|
A|---------------------------|---------------------------|
E|---------------------------|---------------------------|
  I'll   never  let       you               Oh,    darling
                            down             believe
                                                 me,    Believe
  Ooooooooooooooooooooooohhhhhaaaaaaaaaaaaaaaaaaaaaaahhhh

E|------ 7----- ------ 7-----|------ 7----- ------ 7-\---|
B|-------7-------------9-----|-------7-------------9-\---|
G|-------7-------------9-----|-------7-------------9-\---|
D|---------------------------|---------------------------|
A|---------------------------|---------------------------|
E|---------------------------|---------------------------|
      me when     you    ooooh   I'll       do  you    no
           I tell                    never
  Aaaaaaaaaaaaaaaaahhh        Aaaaaaaaaaaaaaaaahhh
E|------ 5-\--- ------ 5-\---|------ 6---5- ---14- ------|
B|-------5-\-----------7-\---|-------6---7---------14----|
G|-------6-\-----------7-\---|-------7---6------------14-|
D|---------------------------|-------6---5---------------|
A|---------------------------|---------------------------|
E|---------------------------|---------------------------|
  harm

E|------ ------ ------ ------|------ ------ ------ ------|
B|---------------------------|---------------------------|
G|---------------------------|---------------------------|
D|9--------------------------|---------------------------|
A|---9---5-------------------|---------------------------|
E|---------------------------|---------------------------|
Composição de John Lennon / Paul McCartney
Colaboração e revisão:
  • Matheus Bastos
4.391 exibições
    • ½ Tom
    • A
    • Bb
    • B
    • C
    • Db
    • D
    • Eb
    • E
    • F
    • F#
    • G
    • Ab
  • Adicionar à lista

    0 comentários

    Mostrar mais comentários
    00:00 / 00:00
    outros vídeos desta música
    repetir qualidade Automático
    Outros vídeos desta música
    00:00 / 00:00
    Automático

    Cifra Club Pro

    Aproveite o Cifra Club com benefícios exclusivos e sem anúncios
    7 dias grátis
    Cifra Club Pro
    Aproveite o Cifra Club com benefícios exclusivos e sem anúncios
    7 dias grátis
    OK