Cifra Club

Strawberry Fields Forever

The Beatles

Cifra: Principal (violão e guitarra)
Selo Cifra Club: esta cifra foi revisada para atender aos critérios oficiais da nossa Equipe de Qualidade.
tom: A
[Intro] F  F7+  F7  Gm  F  Eb/Bb  Bb

[Tab - Intro]

E|---7---7---7---7---7---7---5---4----|
B|---9---9---9---9---9---9---7---6----|
G|---9-------8-------7-------7--------|
D|------------------------------------|
A|------------------------------------|
E|------------------------------------|

E|-------5--------7-------------------|
B|-----7--------5-----7---5-----------|
G|---6--------4-------7---6---2-------|
D|--------------------7---7---2-------|
A|----------------------------0-------|
E|------------------------------------|

Bb
 Let me take you down
                 Fm
´Cause I´m going to
                 G7
Strawberry Fields, Nothing is real
       Eb/Bb       G7
And nothing to get hung about
  Eb/Bb             Bb
Strawberry Fields forever

F          F7+       F7
Living is easy with eyes closed
Gm       Gm/F            Eb/Bb
Misunderstanding all you see

Eb/Bb            F7           Bb
It´s getting hard to be someone
      Dm7/A      Gm
But it all works out
Eb/Bb        F7           Eb/Bb   Bb
 It dosen't matter much to me

Bb
 Let me take you down
                 Fm
´Cause I´m going to
                 G7
Strawberry Fields, Nothing is real
    Eb/Bb          G7
And nothing to get hung about
Eb/Bb                Bb
Strawberry Fields forever


F          F7+       F7
No one I think is in my tree
Gm       Gm/F            Eb/Bb
I mean it must be high or low

Eb/Bb          F7             Bb
That is, you can't, you know, tune in
       Dm7/A  Gm
But it's all right
Eb/Bb        F7              Eb/Bb   Bb
 That is I think it's not too bad

Bb
 Let me take you down
                 Fm
´Cause I´m going to
                 G7
Strawberry Fields, Nothing is real
    Eb/Bb          G7
And nothing to get hung about
Eb/Bb               Bb
Strawberry Fields forever

F       F7+       F7
Always know, sometimes think it's me
Gm              Gm/F            Eb/Bb
But you know I know when it's a dream

Eb/Bb      F7            Bb
I think a "No" I mean a "Yes"
       Dm7/A   Gm
But it's all   wrong
Eb/Bb        F7         Eb/Bb   Bb
 That is I think I disagree

Bb
  Let me take you down
                 Fm
´Cause I'm going to

Strawberry Fields
G7
 Nothing is real
    Eb/Bb          G7
And nothing to get hung about
Eb/Bb                    Bb
Strawberry Fields forever
Eb/Bb                    Bb
Strawberry Fields forever
Eb/Bb       F         Eb/Bb
Strawberry Fields forever

[Tab - Riff]

E|-------------------------|
B|---6b-----8--7h8-7p5-5---|
G|-------------------------|
D|-------------------------|
A|-------------------------|
E|-------6-----------------|

( Bb  Bb/Ab  Bb/Ab  Bb  Bb )

[Tab - Riff - Final ]
E|-------------------------|
B|-------------------------|
G|------8--7tr8------------|
D|-------------------------|
A|-------------------------|
E|---6---------------------|
Outros vídeos desta música
    399.889 exibições
      • ½ Tom
      • A
      • Bb
      • B
      • C
      • Db
      • D
      • Eb
      • E
      • F
      • F#
      • G
      • Ab
    • Adicionar à lista

    Afinação da cifra

    Afinador online

      0 comentários

      Ver todos os comentários

      Entre para o Cifra Club PRO

      Tenha acesso a benefícios exclusivos no App e no Site

      • Chega de anúncios

      • Badges exclusivas

      • Mais recursos no app do Afinador

      • Atendimento Prioritário

      • Aumente seu limite de lista

      • Ajude a produzir mais conteúdo

      Cifra Club Pro

      Aproveite o Cifra Club com benefícios exclusivos e sem anúncios
      Cifra Club Pro
      Aproveite o Cifra Club com benefícios exclusivos e sem anúncios
      Ops (: Contenido disponible sólo en portugués.
      OK