Cifra Club

Lonely Boy

The Black Keys

Cifra: Principal
exibições 97.733
Tom: D
Intro:
E|--------------------------------------------------------------------------|
B|--------------------------------------------------------------------------|
G|--------------------------------------------------------------------------|x4
D|--------------------------------------------------------------------------|
A|--------------------------------------------------------------------------|
E|---0-0-0-0-3b--0-0--0-0-0-0-3b-0------------------------------------------|

Riff 1: (com teclado)

E|--------------------------------------------------------------------------|
B|--5-5--3-5-3--------------------------------------------------------------|
G|----------------2-0-2--2-2-0-2-0------------------------------------------|
D|--------------------------------------2-0-2-------------------------------|
A|--------------------------------------------------------------------------|
E|--------------------------------------------------------------------------|

Riff 2: (abafado)

            E E E E             E E E E          E E E E          E E E E
E|------0-0-0-0-------------0-0-0-0----------0-0-0-0----------0-0-0-0-------|
B|------0-0-0-0-------------0-0-0-0----------0-0-0-0----------0-0-0-0-------|
G|--------------------------------------------------------------------------|
D|--------------------------------------------------------------------------|
A|--------------------------------------------------------------------------|
E|---0--------------0-3b-0-----------0-3b-0-----------0-3b-0----------------|

Em
Well I'm so above you
G                   A
And it's fine to see
Em                          G     A
But I came to love you anyway
Em
So you tore my heart out
G                       A
And I don't mind bleeding
Em
Any old time to keep me waiting
G          A
Waiting, waiting

Refrão:
Em              G               A
Oh, oh oh I got a love that keeps me waiting
Em              G               A
Oh, oh oh I got a love that keeps me waiting
Em
I'm a lonely boy
G               A
I'm a lonely boy
Em              G               A
Oh, oh oh I got a love that keeps me waiting

Em                               G               A
Well your mama kept you but your daddy left you
Em                                       G    A
And I should've done you just the same
Em                               G       A
But I came to love you, am I born to bleed?
Em
Any old time you keep me waiting
G         A
Waiting, waiting
Acordes para:

    0 comentários

      mostrar mais comentários

      Conseguiu tocar?

      46tocaram0ainda não

      Grave um vídeo tocando Lonely Boy e mande pra gente!

      00:00 / 00:00
      outros vídeos desta música
      repetirqualidadeautomática
      Outro vídeos desta música
        00:00 / 00:00
        automática
        OK