Cifra Club

Swollen Summer Intro

The Bravery

Cifra: Principal (violão e guitarra)
tom: C
submitted by Daniel Fernandez

E|--------------------------------------------------------------------------|
B|-----6-6-----8-8----------------------------------------------------------|
G|-7-7-5-5-5-5-7-7----------------------------------------------------------|
D|-7-7-3-3-5-5-5-5----------------------------------------------------------|
A|-5-5-----3-3--------------------------------------------------------------|
E|--------------------------------------------------------------------------|


It's about time some1 put a tab 4 this song.

FOR LESS EXPERIENCED PLAYERS YOU CAN ALSO PLAY THE SONG LIKE
E|--------------------------------------------------------------------------|
B|-----5-5-----7-7----------------------------------------------------------|
G|-7-7-5-5-5-5-7-7----------------------------------------------------------|
D|-7-7-3-3-5-5-5-5----------------------------------------------------------|
A|-5-5-----3-3--------------------------------------------------------------|
E|--------------------------------------------------------------------------|

HOPE IT'S RIGHT, MY FIRST TAB
Compositor não encontrado.
169 exibições
    • ½ Tom
    • A
    • Bb
    • B
    • C
    • Db
    • D
    • Eb
    • E
    • F
    • F#
    • G
    • Ab
  • Adicionar à lista

    0 comentários

    Ver todos os comentários

    Conseguiu tocar?

    0 Tocaram 0 Ainda não

    Grave um vídeo tocando Swollen Summer Intro e nos envie!

    00:00 / 00:00
    Outros vídeos desta música
    Repetir Qualidade Automático
    Outros vídeos desta música
    00:00 / 00:00
    Automático

    Cifra Club Pro

    Aproveite o Cifra Club com benefícios exclusivos e sem anúncios
    Cifra Club Pro
    Aproveite o Cifra Club com benefícios exclusivos e sem anúncios
    OK