Cifra Club

Adrienne

The Calling

Cifra: Principal (violão e guitarra)
Selo Cifra Club: esta cifra foi revisada para atender aos critérios oficiais da nossa Equipe de Qualidade.
tom: F# (forma dos acordes no tom de G) Afinação: Eb Ab Db Gb Bb Eb
(intro 2x) Em7/9 D Bm7 Cadd9 

E|------------------------------------------------------------
B|--6b----------------------------6b-------------7--9p10-9--7-
G|------8h6--6--6--8-6----------------8h6--6-6h8--------------
D|---------------------7--6-6---------------------------------
A|------------------------------------------------------------
E|------------------------------------------------------------

                          Em7/9      D Dsus4 D
I've been thinking about you, my love
    Bm7                            Cadd9
And all the crazy things that you put me through
         Em7/9              D              Bm7    Cadd9
Now I'm coming around, Throwing it back to you
                      Em7/9           D D4 D
Were you thinking of me when you kissed him
           Bm7               Cadd9
Could you taste me when you licked his skin
Emadd9               D                 Bm7       Cadd9
All the while I showered you with trust and promises
          Am7                  G7+/B
What I'm needing now is some sweet revenge
    C                  D
To get back all that I lost then
   Am7            Bm           Cadd9          D D4 D
I gave you all I had to give, but I could never reach you

Em7/9       D     Bm7       Cadd9   D
Adrienne, I thought I knew     you
Em7/9       D     Bm7       Cadd9   D
Once again, you used me, used   me
Em7/9       D     Bm7       Cadd9   D
Adrienne, I should have left   you
Em7/9       D     Bm7       Cadd9   D  Em7/9       D     Bm7       Cadd9   D
Long before you used me, Used   me  up

         Em7/9           D D4 D
Spent my money, drove my car
  Bm7                      Cadd9
I treated you like a shining star
         Em7/9              D              Bm7    Cadd9
But in my sky all burnt out you are
          Em7/9           D
And I'll have the last laugh,
   Bm7                             Cadd9
when I see you walking with some other guy
  Em7/9               D                 Bm7       Cadd9
'Cause I know you're gone end up all alone
    Am7                    G7+/B
So take these words, some good advice
C                       D
All you've done gonna come back twice
     Am7             Bm             C               D D4 D
You never cared how much it hurt, I really need to tell you

(Em7/9 Dadd9 Bm7 Cadd9)
Adrienne, I thought I knew     you
Once again, you used me, used   me
Adrienne, I should have left   you
Long before you used me, Used   me up

(solo 4x) Em7/9 D Bm7 Cadd9 Dadd9

E|-x-x-x-x---x-x-x-x---x-x-x---x--x--x----x-x-x-x---x-x-x-x---x-x-x---x--x--x--
B|-x-x-x-x---x-x-x-x---x-x-x---x--x--x----x-x-x-x---x-x-x-x---x-x-x---x--x--x--
G|-5-5-5-5---7-7-7-7---9-9-9---11-11-11---5-5-5-5---7-7-7-7---9-9-9---11-11-11-
D|-x-x-x-x---x-x-x-x---x-x-x---x--x--x----x-x-x-x---x-x-x-x---x-x-x---x--x--x--
A|-3-3-3-3---5-5-5-5---7-7-7---9--9--9----3-3-3-3---5-5-5-5---7-7-7---9--9--9--
E|-x-x-x-x---x-x-x-x---x-x-x---x--x--x----x-x-x-x---x-x-x-x---x-x-x---x--x--x--

E|-x----x---x---x---x---x---x----x---x---x---x--x--x--x------------------------
B|-x----x---x---x---x---x---x----x---x---x---x--x--x--x------------------------
G|-12---11--9---7---5---4---12---11--9---7---12/14-14-14-----------------------
D|-x----x---x---x---x---x---x----x---x---x---x--x--x--x------------------------
A|-10---9---7---5---3---2---10---9---7---5---12/14-14-14-----------------------
E|-x----x---x---x---x---x---x----x---x---x---x--x--x--x------------------------

          Am7                 G7+/B
What I'm needing now's some sweet revenge
    C           D
To get back all that I lost then
   Am7                 Bm             C               D D4 D
I gave you all that I had to give, but I could never reach you

(Em7/9 Dadd9 Bm7 Cadd9)
Adrienne, I thought I knew     you
Once again, you used me, used   me
Adrienne, I should have left   you
Long before you used me, Used   me  up

        E A D G B e
Em7/9  (0 2 2 0 3 3)
D      (x x 0 2 3 2)
Bm7    (x 2 0 2 3 0)
Cadd9  (x 3 2 0 3 3)      
Dsus4  (x x 0 2 3 3)           
Am7    (x 0 2 0 1 0)
G7+/B  (x 2 0 0 1 0)
C>     (x 3 2 0 1 0)
Outros vídeos desta música
    182.640 exibições
      • ½ Tom
      • A
      • Bb
      • B
      • C
      • Db
      • D
      • Eb
      • E
      • F
      • F#
      • G
      • Ab
    • Adicionar à lista

    Afinação da cifra

    Afinador online

      0 comentários

      Ver todos os comentários

      Entre para o Cifra Club PRO

      Tenha acesso a benefícios exclusivos no App e no Site

      • Chega de anúncios

      • Mais recursos no app do Afinador

      • Atendimento Prioritário

      • Aumente seu limite de lista

      • Ajude a produzir mais conteúdo

      Cifra Club Pro

      Aproveite o Cifra Club com benefícios exclusivos e sem anúncios
      Cifra Club Pro
      Aproveite o Cifra Club com benefícios exclusivos e sem anúncios
      OK